Pietasters - Freak Show Chords & Tabs

 

Freak Show Chords & Tabs

Pietasters Chords & Tabs

Version: 1 Type: Bass Tab 0 ratings
1 star 2 stars 3 stars 4 stars 5 stars
comments

Freak Show Bass Tab

Song:  Freak Show
Band:  THE PiETASTERS
tabbed by:  Andy (pie_tasters@hotmail.com)



2 times
G:--------------
D:--------------
A:--3-----1-----
E:-----3-----1--


G:---------------------------------------------------------------
D:---------------------------------------------------------------
A:-33333333----------11111111-----0-0-1-1-2-2-33333333-----------
E:----------33333333----------1-1----------------------33333333--

G:-----------
D:-----------
A:-11111111--
E:-----------

2 times
G:-----2----------------2------------
D:---3---3-----0------3---3----------
A:-3---------2---2--3---------0-1-2--
E:---------3----------------1--------

8 times                                 Last time play this
G:-----0-----------------------------    G:--------
D:---2---2-----0-----0-3-0-----------    D:--------
A:-3---------2---2-1---------0-1-2---    A:--------
E:---------3---------------1---------    E:-1------

2 times
G:--------------
D:--------------
A:-3-----1------
E:----3-----1---
[ Tab from: http://www.guitartabs.cc/tabs/p/pietasters/freak_show_btab.html ]
4 times                                 Last time play this
G:-----0-----------------------------    G:--------
D:---2---2-----0-----0-3-0-----------    D:--------
A:-3---------2---2-1---------0-1-2---    A:--------
E:---------3---------------1---------    E:-1------

2 times
G:-----2----------------2------------
D:---3---3-----0------3---3----------
A:-3---------2---2--3---------0-1-2--
E:---------3----------------1--------


10 times                                Last time play this
G:-----0-----------------------------    G:--------
D:---2---2-----0-----0-3-0-----------    D:--------
A:-3---------2---2-1---------0-1-2---    A:--------
E:---------3---------------1---------    E:-1------

4 times                                 Last time play this
G:-----0-----------------------------    G:--------
D:---2---2-----0-----0-3-0-----------    D:--------
A:-3---------2---2-1---------0-1-2---    A:-3------
E:---------3---------------1---------    E:--------

any questions e-mail me at pie_tasters@hotmail.com
Comments