Piebald - The Stalker Chords & Tabs

 

The Stalker Chords & Tabs

Piebald Chords & Tabs

Version: 1 Type: Bass Tab 0 ratings
1 star 2 stars 3 stars 4 stars 5 stars
comments

The Stalker Bass Tab

Verse:
G|---55----55----22----22|
D|555--5555--2222--2222--|
A|-----------------------|
E|-----------------------|

G|---55----55----22----22|
D|555--5555--2222--2222--|
A|-----------------------|
E|-----------------------|

G|---55----55----22----22|
D|555--5555--2222--2222--|
A|-----------------------|
E|-----------------------|

G|---55----55----22----22|
D|555--5555--2222--2222--|
A|-----------------------|
E|-----------------------|
[ Tab from: http://www.guitartabs.cc/tabs/p/piebald/the_stalker_btab.html ]
Chorus:
G|3-33-0-00---------|
D|---------2-22-2-22|
A|------------------|
E|------------------|

Bridge:
G|---55----55----22----22|
D|555--5555--2222--2222--|
A|-----------------------|
E|-----------------------|

G|---55----55----22----22|
D|555--5555--2222--2222--|
A|-----------------------|
E|-----------------------|

Verse:1x
Chorus:2x
Verse:1x
Chorus:2x
Bridge:1x
Chorus:4x
thats a really easy song to play hope you like it its a blast
Comments