Piebald - Introduction Chords & Tabs

 

Introduction Chords & Tabs

Piebald Chords & Tabs

Version: 1 Type: Bass Tab 0 ratings
1 star 2 stars 3 stars 4 stars 5 stars
comments

Introduction Bass Tab

   
SONG: Introduction
BAND: Piebald
ALBUM: Sometimes Friends Fight
TABBED BY: Matt Ross (Apollyon365@home.com)

dropped D

 intro
G:----------------------|--------|
D:----------------------|--------|
A:-----2h33p2---5-33-2--|--------|
D:-02---------5---------|-2------|
                          ^hold it out while
                           the guitar plays higher
[ Tab from: http://www.guitartabs.cc/tabs/p/piebald/introduction_btab.html ]
G:-------------------------------------------|
D:-------------------------------------------|
A:----------------------------------0-2--0-2-|
D:-2211-2211--4422-4422--5522-5522-----------|
        i'm not positive about the 1's and 2's
        but i know he plays something there.
        it may just be |-2222-2222--4444-4444...|

G:-------------------------------------------------------------|
D:-------------------------------------------------------------|
A:-----------------------------------------------------0-2-0-2-|
D:--22222-22-22-2222--44444-44-44-4444--55555-55-55-5555-------|

G:-------------------------------------------|
D:-------------------------------------------|
A:----------0-2-0-2----------0-2-0-2---------|
D:--2--4--5----------2--4--5-----------------|
                                   ^let that ring till the end
    the 2's, 4's and 5's are all played 16 times each
Comments