Piebald - Holden Caufield Chords & Tabs

 

Holden Caufield Chords & Tabs

Piebald Chords & Tabs

Version: 2 Type: Bass Tab 0 ratings
1 star 2 stars 3 stars 4 stars 5 stars
comments

Holden Caufield Bass Tab

   
band	: piebald
song	: holden caufield
album	: when life hands you lemons
tabbed by: matt ross(apollyon365@home.com)

standard EADG tuning

G:--------------|
D:--------------|
A:-8-10-12-(14)-|
E:--------------|

:04
G:--------------------------------------------------------------|
D:--------------------------------------------------------------|
A:-3-33-------3-33-------3-33-----------------------------------|
E:------1-1-1------5-5-5------1-1-1-111111-333333-555555-777777-|

:42
G:--------------------------|
D:------22-----22-----22----|
A:--------------------------|
E:-5-3-1--000-0--000-0--000-|

1:14
G:--------------------------------------------------------------|
D:--------------------------------------------------------------|
A:-3-33-------3-33-------3-33-----------------------------------|
E:------1-1-1------5-5-5------1-1-1-111111-333333-555555-777777-|
[ Tab from: http://www.guitartabs.cc/tabs/p/piebald/holden_caufield_btab_ver_2.html ]
1:50
G:----------------------------------------------------------------|
D:-------------------------------------5---------33-------33------|
A:-3-33-33-33333-----------3-5-32---------------------------------|
E:---------------5-55-55-7--------3-33--3-33333-1--1-111-1--1-111-|

2:12 "and this the first time, in 20 years..."
G:--------4-5-9-10-5--------------------------------------------------|
D:-----------------------------------------5---------33-------33------|
A:-3-33-33------------------------------------------------------------|
E:--------------------5-55-45-55555--3-33---3-33333-1--1-111-1--1-111-|

2:32
hit A:3 like a million times at two different speeds

2:45 "as i walk through the fields"
G:-----------------------5------5--|
D:----------5-555-55--5---5---5--5-|
A:-------------------3-------3-----|
E:-5-555-55------------------------|

3:14
G:--------------------------------------------------------------|
D:--------------------------------------------------------------|
A:-3-33-------3-33-------3-33-----------------------------------|
E:------1-1-1------5-5-5------1-1-1-111111-333333-555555-777777-|
Comments