Piebald - Chris Rodgers Chords & Tabs

 

Chris Rodgers Chords & Tabs

Piebald Chords & Tabs

Version: 2 Type: Bass Tab 0 ratings
1 star 2 stars 3 stars 4 stars 5 stars
comments

Chris Rodgers Bass Tab

SONG: Chris Rodgers
BAND: Piebald
ALBUM: Sometimes Friends Fight
TABBED BY: Matt Ross (Apollyon365@home.com)

you gotta drop all the way down to B on this one
BADG
	i dunno about everyone else, but i took some time realizing this...
	to drop to B just drop your low E until E10 sounds like A0
	(maybe i'm just dumb)

 intro       after 8 times switch to this 
G:----------|----------------------------------------|
D:----------|----------------------------------------|
A:---2-3----|----------------------------------------|
B:-5--------|-5-55--87--3-33--87--1-11--87--0-00--87-|

 verse
G:----------------------------------------------------------|
D:----------------------------------------------------------|
A:------------------5---5h3--------3---5h3--------3----5-3--|
B:-5-5-3h53h5---3-7---7----7---0-1--------5---0-3---3-------|

 chorus
G:---------------------------------------------|----------------|
D:---------------------------------------------|----------------|
A:---------------------------------------------|----------------|
B:-5-55--8-9-10--8-88-10-11-13--10-1010-13-9-8-|-10-101010-9-8--|
[ Tab from: http://www.guitartabs.cc/tabs/p/piebald/chris_rodgers_btab_ver_2.html ]
 after chorus
G:---------------------------------------|
D:---------------------------------------|
A:-------0-3-33-3-33-3/6-5p3-------------|
E:-5h7h8----------------------5-55-5-55--|

 bridge
G:------------------|
D:------------------|
A:------------2p3---|
B:-7x7x5-5--7----5--|

 outro 	3:28
G:--------------------------|------------------------------|
D:--------------------------|------------------------------|
A:--------------------------|------------------------------|
B:-5-555-7-777-8-888-3-333--|-5-555-7-777-8-888-10-101010--|
	3:39
G:------------------------------|------------------------------|
D:------------------------------|------------------------------|
A:---5h3h2---------7h5h3--------|------------------------------|
B:-5-------7-777-8-------3-333--|-5-555-7-777-8-888-10-101010--|
	3:38
G:--------------------------------|--------------------------------| /repeat
D:--------------------------------|--------------------------------| /till the
A:--------------------------3h2-0-|--------------------0-0-0-2h3h5-| /end
B:-5-555-7-777-8-888-3-3-3--------|-5-555-7-777-8-888--------------|
Comments