Phools - Outer Space Chords & Tabs

 

Outer Space Chords & Tabs

Phools Chords & Tabs

Version: 2 Type: Bass Tab 0 ratings
1 star 2 stars 3 stars 4 stars 5 stars
comments

Outer Space Bass Tab

-------------------------------------------------------------------------
		  Outer Space - the ph00lz
-------------------------------------------------------------------------

By:Jak Jahan (the ph00lz bassist)

      x2           then this x1
G|--------------|-9-9-9-9-9----------------------------------------------|
D|--------------|--------------------------------------------------------|
A|------5*-7*---|--------------------------------------------------------|
E|-0*-5*-----5*-|--------------------------------------------------------|
intro (*=play note once every chord change)   end with this x1

G|----7h9----------------------------------|-9-7-6-----------------------|
D|------------4h5p4--------------6h7h9h7h6-|-----------------------------|
A|-7-7---5-5-5--------5-5-7-7-7-7----------|-----------------------------|
E|-----------------7-7---------------------|-----------------------------|
[ Tab from: http://www.guitartabs.cc/tabs/p/phools/outer_space_btab_ver_2.html ]
verse                                     end with this x1
G|-------------------------------------|-9-9-9-9-9-9-9-------------------|
D|--------------4h5h4h5h4----------7-5-|---------------------------------|
A|-----------------------5-5-7-7-7-----|---------------------------------|
E|-0-0-0-0-5-5-5------------------5-5--|---------------------------------|

chorus
G|-----------------------------------------------------------------------|
D|-----------------------------------------------------------------------|
A|-----------------------------------------------------------------------|
E|-3-3-3-(guitar-riff)-3-3-3-(guitar riff)-3-3-3-(guitar-riff)-7-7-7-7-7-|
interlude (slap strings)

G|-----------------------------------------------------------------------|
D|----9-7-6--------------------------------------------------------------|
A|---------9-7-6---------------------------------------------------------|
E|-7-7----------9~-------------------------------------------------------|
interlude cont.
==========================================================================
Comments