Phools - Outer Space Chords & Tabs

 

Outer Space Chords & Tabs

Phools Chords & Tabs

Version: 1 Type: Bass Tab 0 ratings
1 star 2 stars 3 stars 4 stars 5 stars
comments

Outer Space Bass Tab

   
--------------------------------------------------------
		0uter space - the ph00ls
--------------------------------------------------------

s=slap

By:written by peter r0bins0n, tab by jak jahan
[ Tab from: http://www.guitartabs.cc/tabs/p/phools/outer_space_btab.html ]
G|---------------------------------------------------------|
D|------------------4h5h4h5h4------------------------------|
A|---------------------------5-5-7-7-----------------------|
E|-0-0-0-0-0-5-5-5-5----------------5-5-5-5----------------|
intr0 (after guitar)
G|----7h9--------------------------------------------------|
D|----------4h5h4------------------------------------------|
A|-7-7---5-5--------5-5-5-7-7-7-7-7------------------------|
E|---------------7-7---------------------------------------|
verse
G|---------------------------------------------------------|
D|---------------------------------------------------------|
A|---------------------------------------------------------|
E|-3s3s3s-(guitar)-3s3s3s-(guitar)-5s5s5s-(guitar)-7-7-7-7-|
interlude
G|---------------------------------------------------------|
D|------------------4h5h4h5h4------------------------------|
A|---------------------------5-5-7-7-----------------------|
E|-0-0-0-0-0-5-5-5-5----------------5-5-5-5----------------|
ch0rus(same as intr0)
Comments