Phoenix - You Cant Blame It On Anybody Chords & Tabs

 

Phoenix Chords & Tabs

Version: 1 Type: Bass Tab 0 ratings
1 star 2 stars 3 stars 4 stars 5 stars
comments

You Cant Blame It On Anybody Bass Tab

    You can't blame it on anybody           Some things they don't last
G|--------------------------------------------------------------------------|
D|--------------------------------------------------------------------------|
A|-4-4-----4---4---2-2-----2h4-------------7--------------------------------|
E|-----------------------------0-7-0-----0-----0---4---5-5-----4-5--0--4--0-|

    You can't blame it on anybody           I thought I'd entertain you
G|--------------------------------------------------------------------------|
D|--------------------------------------------------------------------------|
A|-------0-4---4---2-2----0-2-2-4-5-7/9----7--------------------------------|
E|-9\\\----------------------------------0-----0---4---5-5-----4-5--0--5--0-|

   Let me take you to the heart of the city       Let me misunderstand you
G|---------------------------------------------------------------------------|
D|---------------------------------------------------------------------------|
A|----------------------4-4-----4--7-9--5-7-7---------7----------------------|
E|-4--4-------4-4---4-----------------------------0-------6--6---6-6---6---5-|

------------|
------------|
------------|
--5---5---5-|



   Fallin' down I couldn't notice            She had some glasses on

G|--------------------------------------------------------------------------|
D|--------------------------------------------------------------------------|
A|-4-----------4---2-2-----2h4-------------7--------------------------------|
E|-----------------------------0-7-0-----0-----0---4---5-5-----4-5--0--5--0-|

   Few broken bones in the process           I try to keep my attitude
G|-----------------------------------------------------------------------|
D|-----------------------------------------------------------------------|
A|----------------------5-5-----5--7-9--5-7-7---------7------------------|
E|-4--4-------3-4---4-----------------------------0-------6--6---6-6---6-|


    Words of love in broken english           They have a lonesome tone
G|--------------------------------------------------------------------------|
D|--------------------------------------------------------------------------|
A|-4-4---3/4---4---2-2-----0-2-4-5-7/9-----7--------------------------------|
E|---------------------------------------0-----0---4---5-5-----4-5--0--5--0-|

    Didn't understand must be italian         Must be good looking undressed
G|----------------------------------------------------------------------------|
D|---------------------------------9-7----------------------------------------|
A|----------------------5-5-----5------5---7-7----7-------7-------------------|
E|-4--4-------3-4---4---------------------------7---7-0------6--6---5-6--5--6-|

-----------------|
-----------------|
-----------------|
---5---5---5---5-|



     You can't blame it on anybody        Some things they don't last
G|--------------------------------------------------------------------------|
D|--------------------------------------------------------------------------|
A|-4-4-----4---4---2-2-----2h4-------------7--------------------------------|
E|-----------------------------0-7-0-----0-----0---4---5-5-----4-5--0--4--0-|

     You can't blame it on anybody        I thought I'd entertain you
G|--------------------------------------------------------------------------|
D|--------------------------------------------------------------------------|
A|-------0-4---4---2-2----0-2-2-4-5-7/9----7--------------------------------|
E|-9\\\----------------------------------0-----0---4---5-5-----4-5--0--5--0-|
[ Tab from: http://www.guitartabs.cc/tabs/p/phoenix/you_cant_blame_it_on_anybody_btab.html ]
  Let me take you to the heart of the city        Let me misunderstand you
G|---------------------------------------------------------------------------|
D|---------------------------------------------------------------------------|
A|----------------------4-4-----4--7-9--5-7-7---------7----------------------|
E|-4--4-------4-4---4-----------------------------0-------6--6---6-6---6---5-|

------------|
------------|
------------|
--5---5---5-|






    With lil' care & lil' practice             I got to know her well
G|--------------------------------------------------------------------------|
D|--------------------------------------------------------------------------|
A|-4-----------4---2-2----0-2-2-4-5-7/9----7--------------------------------|
E|---------------------------------------0-----0---4---5-5-----4-5--0--5--0-|

   Light baritone she sings in a choir      With a bunch of guys out of tune
G|----------------------------------------------------------------------------|
D|---------------------------------9-7----------------------------------------|
A|----------------------5-5-----5------5---7-7----7-------7-------------------|
E|-4--4-------3-4---4---------------------------7---7-0------6--6---5-6--5--6-|

-----------------|
-----------------|
-----------------|
---5---5---5---5-|


-BASS BREAK-
Day is night, right is wrong
Failure notice, I'm giving up I'm tired
Day is night, right is wrong
Love is all, love is evil


   Day is night, right is wrong,           Day is night, right is wrong
           Love is all, love is evil                  Obsolete, odd is even
G|--------------------------------------------------------------------------|
D|--------------------------------------------------------------------------|
A|-4-4-----4---4---2-2-----0-2-4-5-7/9-----7--------------------------------|
E|---------------------------------------0-----0---4---5-5-----4-5--0--5--0-|

Failure notice, I'm giving up I'm tired     Love is all, love is evil
              Day is night, right is wrong       Day is night, right is wrong
G|----------------------------------------------------------------------------|
D|---------------------------------9-7----------------------------------------|
A|----------------------5-5-----5------5---7-7----7-------7-------------------|
E|-4--4-------3-4---4---------------------------7---7-0------6--6---5-6--5--6-|

  Failure notice, I'm giving up I'm tired
-----------------|
-----------------|
-----------------|
---5---5---5---5-|


   You can't blame it on anybody              Some things they don't last
G|--------------------------------------------------------------------------|
D|--------------------------------------------------------------------------|
A|-4-4-----4---4---2-2-----2h4-------------7--------------------------------|
E|-----------------------------0-7-0-----0-----0---4---5-5-----4-5--0--4--0-|

   You can't blame it on anybody              I thought I'd entertain you
G|--------------------------------------------------------------------------|
D|--------------------------------------------------------------------------|
A|-------0-4---4---2-2-----0-2-4-5-7/9-----7--------------------------------|
E|-9\\\----------------------------------0-----0---4---5-5-----4-5--0--5--0-|


Let me take you to the heart of the city           Let me misunderstand you
G|---------------------------------------------------------------------------|
D|---------------------------------------------------------------------------|
A|----------------------4-4-----4--7-9--5-7-7---------7----------------------|
E|-4--4-------4-4---4-----------------------------0-------6--6---6-6---6---5-|

------------|
------------|
------------|
--5---5---5-|
Comments