Phoebe Palmer Knapp - Blessed Assurance Chords & Tabs

 

Blessed Assurance Chords & Tabs

Phoebe Palmer Knapp Chords & Tabs

Version: 1 Type: Tab 0 ratings
1 star 2 stars 3 stars 4 stars 5 stars
comments

Blessed Assurance Tab

Verse
E---------|---------------|---------------|-------------------|------------|
B---------|---------------|---------------|-3---2---2-0-------|------------|
G---------|-2---2---0-2-4-|--2-----2---2--|-------------2-1---|------------|
D--4-2-0--|---------------|----------4----|-------------------|------------|
A---------|---------------|---------------|-------------------|------------|
E---------|---------------|---------------|-------------------|------------|


E-------------|----------------|-------------|--------------------|-----|--|
B-------------|----------------|-------------|--------------------|-----|--|
G-2-----------|--2---2---0-2-4-|--2----------|--0-----------------|-----|--|
D-------4-2-0-|----------------|------0-2-4--|------2---0-2-------|--0--|--|
A-------------|----------------|-------------|--------------4-----|-----|--|
E-------------|----------------|-------------|--------------------|-----|--|
[ Tab from: http://www.guitartabs.cc/tabs/p/phoebe_palmer_knapp/blessed_assurance_tab.html ]
Chorus
E--------|---------------|-----------|---------------|---------0-|---------|
B--------|-3-------------|-----------|-----3---2-2-0-|-2---2-3---|---------|
G--2-2-2-|-----2---4-4-4-|-2---2-2-2-|-4-------------|-----------|---------|
D--------|---------------|-----------|---------------|-----------|---------|
A--------|---------------|-----------|---------------|-----------|---------|
E--------|---------------|-----------|---------------|-----------|---------|


E----------------|-------------|-----------------|-----|-------------------|
B--3-------------|-------------|-----------------|-----|-------------------|
G------2---4-2-4-|--2----------|-0---------------|-----|-------------------|
D----------------|------0-2-4--|-----2---0-2-----|--0--|-------------------|
A----------------|-------------|--------------4--|-----|-------------------|
E----------------|-------------|-----------------|-----|-------------------|

Enjoy this tab! It is really easy to play!
Comments