Phish - You Enjoy Myself Chords & Tabs

 

You Enjoy Myself Chords & Tabs

Phish Chords & Tabs

Version: 2 Type: Tab 0 ratings
1 star 2 stars 3 stars 4 stars 5 stars
comments

You Enjoy Myself Tab

   
----------------------------------------------------------------------------
			     You Enjoy Myself - Phish
-----------------------------------------------------------------------------
This isn't the entire song but its the entire first part up to the first break.
I'll finish it as soon as I get a chance. Its a pretty long song until you get
to the jam. (Which I'll just say is just switching between Gm7 and C7#9)

Tabbed by: Nathan Alexander
Email: phree89@yahoo.com

Tuning: Standard (EADGBE)


Intro
e|--------------10-13-10---------------------------10-13-10---------|
B|------------11---------11---------------------11----------11------|
G|----------10----------------10--------------10--------------10----|
D|-------12----------------------12---------12------------------12--|
A|-12h13----------------------------13h12p12------------------------|
E|------------------------------------------------------------------|

e|----------------10-13-10-------------------------10-13-10----------|
B|-------------11----------11-------------------11----------11-------|
G|----------10----------------10-------------10----------------10----|
D|-------12---------------------12-------12-----------------------12-|
A|-13-13---------------------------13-13-----------------------------|
E|-------------------------------------------------------------------|

e|-------------------10-13-10-------------------------10-13-10-------|
B|----------------11----------11-------------------11----------11----|
G|-------------10----------------10-------------10----------------10-|
D|----------12----------------------12-------12----------------------|
A|-13-13-13----------------------------13-13-------------------------|
E|-------------------------------------------------------------------|


    Gm            C               F               C
e|-------------6-10-8---------------------------8----------------|
B|-----------8--------8----------------------10-----------8------|
G|---------7------------9-----------------10----------------9----|
D|-------8----------------10---------7-10---------------------10-|
A|----10---------------------10-7--8-----------------10-7--------|
E|-------------------------------------------------8-------------|

    Eb           Bb6(Gm/B)      C
e|---------------6---6------------------------------------|
B|-------------8-------8----------------------5---5-8---8-|
G|-----------8-----7-----7-------5-----5---5----5-----5---|
D|---------8---------------8--5------5---5----------------|
A|----6-10-------------------------7----------------------|
E|--------------------------------------------------------|

   Eb            Gm                 F               C
e----------------------------------|--------8-------------------12-15-|
B-----11-8-------------------------|----------10---------8---/13------|
G---8------8-----------------------|-------------10----9--------------|
D------------8----------8-12-8-----|---7-10---------10----------------|
A--------------10----10--------10\-|-8--------------------------------|
E-----------------10---------------|----------------------------------|

   Eb                Bb/D                C
e---18-15----------------------------18--20---------------------|
B---------16-------------------15-18--------20-17---------------|
G------------15-------------15--------------------17------------|
D---------------17-------15--------------------------17---------|
A------------------18-17--------------------------------19------|
E----------------------------------------------------------20---|
[ Tab from: http://www.guitartabs.cc/tabs/p/phish/you_enjoy_myself_tab_ver_2.html ]
   Gm            C               F              Bb
e------------6-10-8-------------|--------------8-------------------|
B----------8--------8-----------|-----------10---11----------------|
G--------7------------9---------|--------10---------10-------------|
D------8----------------10------|---7-10---------------12----------|
A---10---------------------10-7-|-8-----------------------13-8-----|
E-------------------------------|-------------------------------10-|

   Eb             Am7b5               D
e---------------------------8-------|-------10-14-10--------------------|
B-------------8-11-10---------10----|----10----------10-----------------|
G-----------8---------8----------8/-|/11----------------11--------------|
D---------8-------------10----------|----------------------12-----------|
A------10---------------------------|-------------------------12-9------|
E---11------------------------------|------------------------------10---|

   Eb/G                                  D              Gm
e---------------15-18-15--------------|---------------14-17--------|
B------------16----------16-----------|------------15-------15-----|
G---------15----------------15--------|----------14-------------15-|
D------17-----------------------17----|-------16-------------------|
A---18-----------------------------18-|-17-17----------------------|
E-------------------------------------|----------------------------|

               Eb/G              Am7b5               D
e-15-------|--------------15-18-17----------------|---------------|
B----15----|-----------16----------16-13----------|---------------|
G-------15-|--------15------------------14--------|-14---------14-|
D----------|-----17-------------------------13----|---------------|
A----------|--18-------------------------------15-|----17\16/17---|
E----------|--------------------------------------|---------------|

                      G                   Am           Bm

e-----------14----14-|-15-----------------------17-----|-------19-----|
B--------15----15----|----15----15------------17--17---|-----19--19---|
G-----14-------------|-------16----16-------17------17-|---19------19-|
D--16----------------|----------------17-/19-----------|-21-----------|
A--------------------|---------------------------------|--------------|
E--------------------|---------------------------------|--------------|

  C                  Eb                 Gm/D

e|-------15-20-15-|-----18-15----18-15----18p5----18p5--------|
B|----17----------|-17--------16-------16------15-------15----|
G|-17-------------|-------------------------------------------|
D|----------------|-------------------------------------------|
A|----------------|-------------------------------------------|
E|----------------|-------------------------------------------|

  C                  D
e|-------15-20-15-----------17-22-17----|
B|----17----------17-----19---------19--|
G|-17-----------------19----------------|
D|--------------------------------------|
A|--------------------------------------|
E|--------------------------------------|

(6X)
 G                  Am           Bm           C
e|-------10-------10------12----12-----14----14-----15----15---|
B|----12-------12-------13----13-----15----15-----17----17-----|
G|-12-------12--------14----14-----16----16-----17----17-------|
D|-------------------------------------------------------------|
A|-------------------------------------------------------------|
E|-------------------------------------------------------------|

  G (for a couple of bars)
e|-------------------------|
B|-------------------------|
G|-------------------------|
D|--0---0----0----0-----0--|
A|--------2---------2------|
E|-3---3----3---3-----3----|

last time play and let the G on the low E string ring
e|-----------|
B|-----------|
G|-----------|
D|---0-------|
A|-----2-----|
E|-3-----3-3-|
Comments