Phish - You Enjoy Myself Chords & Tabs

 

You Enjoy Myself Chords & Tabs

Phish Chords & Tabs

Version: 1 Type: Tab 0 ratings
1 star 2 stars 3 stars 4 stars 5 stars
comments

You Enjoy Myself Tab

   
##################################################################################
# This file is the author's own work and represents their interpretation of the  #
# song. You may only use this file for private study, scholarship, or research.  #
##################################################################################

Phish - You Enjoy Myself

From: Eric Berman (ericbe@microsoft.com)

Click here for the lyrics page for this song.

The intro to this song has just a ton of chord arpeggios that would be too
much work to tab out. For the sake of simplicity, I'll use "^" to mean
"upward arpeggio" and "v" to mean "downward arpeggio". Of course, Trey being
Trey, half of the arpeggios start out in one direction and finish in the
other. I'll leave the direction designation off of these.

Many of these arpeggios go across 6 strings, so get your fingers stretched
out! For example, the Gm^ arpeggio near the start of the song is played like
this (the fingerings that I use are written underneath):

   Gm^
E|----------------10--
B|-------------11-----
G|----------12--------
D|-------12-----------
A|----13--------------
E|-15-----------------
    4  2  1  3  2  1

The rest of the arpeggios are left as an exercise to the reader.
(Sorry).

Anyhow, enough chatter.  Here's the chords/tab:

Intro:
   Bbmaj7
      H     H                      P  H
E|---------------------------------------------------13--------|
B|----------------15-15---------------------------15----15-----|
G|-------------15-------15---------------------15----------15--|  etc.
D|-------12-15------------15-12----------12-15-----------------|
A|-12-13------------------------13-12-13-----------------------|
E|-------------------------------------------------------------|

(Pause for 2 measures, then rake strings just before starting...)

Gm^ Cv F^ Cv Eb^ Gm C^ Eb Bb^ F C^ Ebv Bb^ Cv

Gm^ Cv F^ Bbv Eb^ Am7b5 D(2x) Eb/G(2x) D Gm Eb/G Am7b5 D(2x)

   G                  Am                Bm
E|----------15-----------------17----------------19------------|
B|-------15----15-----------17----17----------19----19---------|
G|----16----------16-----17----------17----19----------19------|
D|-17-----------------19----------------21---------------------|
A|-------------------------------------------------------------|
E|-------------------------------------------------------------|

   C                  Eb                 Gm/D
                         P        P         P        P
E|-------15-20-15-----18-15----18-15-----18-15----18-15--------|
B|----17----------17--------16-------16--------15-------15-----|
G|-17----------------------------------------------------------|
D|-------------------------------------------------------------|
A|-------------------------------------------------------------|
E|-------------------------------------------------------------|

   C                  D
E|-------15-20-15-----------17-22-17----|
B|----17----------17-----19---------19--|
G|-17-----------------19----------------|
D|--------------------------------------|
A|--------------------------------------|
E|--------------------------------------|

Repeat the following 1-3-5 arpeggios 6 times:
   G                  Am           Bm           C
E|-------10-------10------12----12-----14----14-----15----15---|
B|----12-------12-------13----13-----15----15-----17----17-----|
G|-12-------12--------14----14-----16----16-----17----17-------|
D|-------------------------------------------------------------|
A|-------------------------------------------------------------|
E|-------------------------------------------------------------|

G (repeat  a couple of times)
E|-------------------|
B|-------------------|
G|-------------------|
D|---0--0--0--0-0-0--|
A|--2--2--2--2-2-2---|
E|-3--3--3--3--------|

(No chord)  Repeat stuff between |: :| an appropriate number of times,
and repeat the whole thing twice:
   |:         :|                   |:       :|
E|-------------------------------------------------------------|
B|------------------------12----13-------12--------------------|
G|-----12--12-------14-----------------------------------------|
D|---------------------12----14------12------------------------|
A|---14--14------15--------------------------------------------|
E|-------------------------------------------------------------|

Snare drum hit, then repeat the following 6 times:
   C/E        G/D        Am7/C             G/D
                             H     H
E|----------|----------|-----------------|-----------|
B|----------|----------|-----------------|-----------|
G|---5--5---|---4--4---|---0-2---0-2---0-|---4--4----|
D|--5--5--5-|--5--5--5-|-----------------|--5--5--5--|
A|-7--7--7--|-5--5--5--|-3-----3-----3---|-5--5--5---|
E|----------|----------|-----------------|-----------|

Then this:
   C/E        G/D        Am7/C             G/D
E|----------|----------|-----------------|-----------------|
B|----------|----------|-----------------|-----------------|
G|---5--5---|---7--7---|-----9----11--11-|----12----12-----|
D|--5--5--5-|--5--5--5-|--10----10-------|--12----12----12-|
A|-7--7--7--|-5--5--5--|-----------------|-----------------|
E|----------|----------|-8-----8-----8---|10----10----10---|

   C/E        G/D        Am7/C      (no chord)
E|---8--8---|---7--7---|---5--5----|-5---7---8----10-----|
B|--8--8--8-|--8--8--8-|--5--5-----|---------------------|
G|-9--9--9--|-7--7--7--|-5--5--5-5-|---7---9---11----12--|
D|----------|----------|-----------|---------------------|
A|----------|----------|-----------|---------------------|
E|----------|----------|-----------|---------------------|

E|-12----10---8----12----|-10---8---7----10---10-------------|
B|-----------------------|-----------------------------------|
G|----11----9---12----11-|----9---7---11---11----------------|
D|-----------------------|------------------------0-0-0-0-0--|
A|-----------------------|-----------------------------------|
E|-----------------------|-----------------------------------|
[ Tab from: http://www.guitartabs.cc/tabs/p/phish/you_enjoy_myself_tab.html ]
               /S                            /S         /S
E|---5---8---8----10-----------|---5---8---8----10---8-----7-6-5-|
B|-----------------------------|---------------------------------|
G|-7---9---9---11--------------|-7---9---9---11----9---6-7---6-5-|
D|-------------------0-0-0-0-0-|---------------------------------|
A|-----------------------------|---------------------------------|
E|-----------------------------|---------------------------------|

      /S    *
E|-3-5-7-5-----|
B|-x-----------|
G|-4-5-7-5--o--|
D|----------o--|
A|-------------|
E|-------------|
*=Harmonics.

Funky chords with bass jam-Strum from 1st string to 6th string and play
4 times:
E|-0---0---|
B|-0---0---|
G|-0---0---|
D|-16--14--|
A|-17--15--|
E|-19--17--|

Then these chords as triplets (let other strings ring):
   D   A  E  D   A
E|-10--9--12-10--9---|
B|-10--10-12-10--10--|
G|-11--9--13-11--9---|
D|-------------------|
A|-------------------|
E|-------------------|

Then this progression 4 times:
E E D/F# A/B E D/F# A/B

I play these chords like this:
   E  D/F# A/B
E|-------------|
B|-9---7----5--|
G|-9---7----6--|
D|-9---7----7--|
A|-7---9----x--|
E|----------7--|

Then:
Em7 D

Em7 Fmaj7 (6x)

I play these at the octave, like this:
   Em7 Fmaj7
E|-----12---|
B|-12--13---|
G|-12--14---|
D|-12--14---|
A|-x---x----|
E|-12--13---|

Then the guitar solo. Note that it uses a ton of bends and slides; do
likewise, because it really makes the sound of the solo. I've put the
implied notes in parentheses; this is when you bend a string to hit a note
but don't pluck it again. For example 14 (16) 14 where the 14 is bent up two
means to strike the string on the 14th fret, bend it up a whole step, then
release the bend, all on one pluck.

       G                       F
             1                                     1                  1
   /S       /     /S           /S                 /        P         /
E|---|-15-17-(19)-15---------|-----------------------------------------|
B|---|--------------17-16-15-|---15------------------------------------|
G|-16|-----------------------|-16--16-15-14--12-14-(16)-14-12-14-12-14-|
D|---|-----------------------|-------------14--------------------------|
A|---|-----------------------|-----------------------------------------|
E|---|-----------------------|-----------------------------------------|
                                                                     \--

(Hold that bent 14...)

  G
                         1                            1
            P           /                  P         /
E|15-------------------------15-------------------------|
B|------------------------15----15------------------15--|
G|--(16)-14-12--14--12-14-(16)-----(16)-14-12----12-----|
D|------------14--14--------------------------14--------|
A|------------------------------------------------------|
E|------------------------------------------------------|
----------/            \-----------------/          \----

   F
             1/4   1
            /     /
E|------12------------------|
B|-(17)----15-12----12------|
G|---------------14---14-12-|
D|--------------------------|
A|--------------------------|
E|--------------------------|
-----/

   G
     1/2  1/2               1/2
    /    /                 /         P
E|-17---17---15-------------------------------|
B|--------------17-15--15-17-(18)-17-15-17-15-|
G|-------------------17-----------------------|
D|--------------------------------------------|
A|--------------------------------------------|
E|--------------------------------------------|

   F
      /S               /S    ~~\S
E|-------15------------------------|
B|---------17-16-15-------15-------|
G|-15-16------------15-16----16----|
D|---------------------------------|
A|---------------------------------|
E|---------------------------------|

   G
     1/2       1/2            1/2
    /         /          P   /         P  /S
E|-17----15------------------------------------------------|
B|-----------17--(18)-17-15-17-(18)-17-15----15------------|
G|----------------------------------------16---16-15-14-12-|
D|---------------------------------------------------------|
A|---------------------------------------------------------|
E|---------------------------------------------------------|

   F
           1                    1
          /         P          /        P
E|-----------------------------------------|
B|-----------------------------------------|
G|----12-14-(16)-14-12-14-12-14-(16)-14-12-|
D|-14--------------------------------------|
A|-----------------------------------------|
E|-----------------------------------------|

Em7 Fmaj7 (6x)

Then the second guitar solo:
       G                        F
             1                                        1
   /S       /                    /S                  /
E|---|-15-17--(19)--15---------|-------------------------------|
B|---|----------------17-16-15-|----15-------------------------|
G|-16|-------------------------|-16---16-15-14--12-14-(16)-14--|
D|---|-------------------------|--------------14---------------|
A|---|-------------------------|-------------------------------|
E|---|-------------------------|-------------------------------|

   G
     1             1
    /             /
E|-22--22-20-19-20-(22)-20-19----|
B|----------------------------20-|
G|-------------------------------|
D|-------------------------------|
A|-------------------------------|
E|-------------------------------|

   F
                     1
                    /
E|--------------19-22-(24)-22-19-22-19-|
B|-----------20------------------------|
G|-19--19-21---------------------------|
D|---21--------------------------------|
A|-------------------------------------|
E|-------------------------------------|

   G
               1
     H        /      P     /S              H         /S
E|-----3-----------------------------|------------------|
B|-------5-3-5-(6)-5-3-5-3---3-------|------------1--13-|
G|-3-4---------------------4---4-3-2-|-0-----0--0-------|
D|-----------------------------------|---0-2--2---------|
A|-----------------------------------|------------------|
E|-----------------------------------|------------------|

Rising chords:
B C C# D Eb E F F# G G# A A# B C C# D (up up and away...)

And finally into the verses:
Gm7  C9
Boy
Gm7  C9
Man
Gm7  C9
God
Gm7  C9
Shit
Gm7                                     C9
Wash-a-Uffize and drive me to Firenze

These chords are played like this:
   Gm7 C9
E|-15--15-|
B|-15--15-|
G|-15--15-|
D|-15--14-|
A|-x---15-|
E|-15-----|

----------------------------------------------------------------------------
Keith Martin 
Comments