Phish - Waste Chords & Tabs

 

Waste Chords & Tabs

Phish Chords & Tabs

Version: 6 Type: Tab 0 ratings
1 star 2 stars 3 stars 4 stars 5 stars
comments

Waste Tab

   
----------------------------------------------------------------------------
			     WASTE - Phish
----------------------------------------------------------------------------
Tabbed by:Andy Bessette
Email:Pittshockey17@aol.com

Tuning:Standard, Capo at 5 (tab is written with respect to capo, 0 means 5th fret of guitar, open on capo)

Intro/Verse: (repeated)
e|---x--x----x--x----x--x----x---------------0--0----0--0----x--x--x--x----|
B|---3--3----3--3----3--3----1----0----------1--1----1--1----3--3--3--3----|
G|---0--0----x--x----0--0----0-0----0---2----0--0----0--0----0--0--0--0----|
D|---0--0----4--4----3--3----3---3----3------2--2----1--1----0--0--0--0----|
A|---2--2----2--2----2--2----2---------------3--3----3--3----2--2--2--2----|
E|---3--3----3--3----3--3----3-------------------------------------------3-|

Bridge: (A dream, its true...)
e|---0--0----0--0----x--x--x--x--------------------------------------------|
B|---1--1----1--1----3--3--3--3--------------------------------------------|
G|---0--0----0--0----0--0--0--0--------------------------------------------|
D|---2--2----1--1----0--0--0--0--------------------------------------------|
A|---3--3----3--3----2--2--2--2--------------------------------------------|
E|-------------------------------------------------------------------------|
[ Tab from: http://www.guitartabs.cc/tabs/p/phish/waste_tab_ver_6.html ]
Pre-Chorus: (So if I'm inside your head...)
     B    F    C    G
e|---1----1----0----x------------------------------------------------------|
B|---3----1----1----3------------------------------------------------------|
G|---3----2----0----0------------------------------------------------------|
D|---3----3----2----0------------------------------------------------------|
A|---1----3----3----2------------------------------------------------------|
E|--------1---------3------------------------------------------------------|

Chorus
     C Fsus4/A Fsus4
e|---0----0----1-----------------------------------------------------------|
B|---1----1----1-----------------------------------------------------------|
G|---0----0----0-----------------------------------------------------------|
D|---2----3----3-----------------------------------------------------------|
A|---3----0----3-----------------------------------------------------------|
E|-------------------------------------------------------------------------|

You can ad lib a little on that last Fsus4, throw some hammer ons onto G-2 and such, it sounds good.


| /  slide up
| \  slide down
| h  hammer-on
| p  pull-off
| ~  vibrato
| +  harmonic
| x  Mute note
===============================================================================
Comments