Phish - Waste Chords & Tabs

 

Waste Chords & Tabs

Phish Chords & Tabs

Version: 2 Type: Tab 0 ratings
1 star 2 stars 3 stars 4 stars 5 stars
comments

Waste Tab

Song - Waste
Artist - Phish

Standard Tuning 

Intro/Verse
[ Tab from: http://www.guitartabs.cc/tabs/p/phish/waste_tab_ver_2.html ]
--0-----0-----0-----0-----0-----0-----1-----1-----0
--1-----0-----1-----6-----5-----3-----1-----1-----1
--0-----0-----4-----0-----0-----0-----2-----1-----0
--2-----2-----2-----0-----0-----0-----3-----3-----2
--3-----3-----3-----0-----0-----0-----0-----0-----3
--0-----0-----0-----0-----0-----0-----0-----0-----0

Bridge

--1-----1-----0
--1-----1-----1
--2-----1-----0
--3-----3-----2
--0-----0-----3
--0-----0-----0

Pre-Chorus

--0-----0-----0-----0
--0-----0-----0-----0
--8-----3-----0-----5
--8-----3-----3-----5
--6-----1-----3-----3
--0-----0-----1-----0

Chorus

--0-----0-----0
--0-----0-----0
--0-----0-----3
--3-----5-----3
--3-----5-----1
--1-----3-----0
Comments