Phish - Waste (correct) Chords & Tabs

 

Waste (correct) Chords & Tabs

Phish Chords & Tabs

Version: 1 Type: Tab 0 ratings
1 star 2 stars 3 stars 4 stars 5 stars
comments

Waste (correct) Tab

For everybody who has been looking for the correct tablature of this song that actually sounds good, look no more.
-Dave Kelly


Phish
Waste
Billy breathes
Standard Tuning- EADGBe



e--5-----5-----5-----5-----5-----5-----3---2---0-----3-------3-------3-------3------3-----3-----3-----3-----
B--3-----3-----2-----2-----1-----1-----3---3---3-----3-------3-------3-------3------2-----2-----2-----2-----
G--2-----2-----2-----2-----2-----2-----2---2---2-----4-------4-------3-------3------3-----3-----3-----3-----
D--0--0--0--0--0--0--0--0--0--0--0--0----------------5---5---5---5---5---5---5---5--0--0--0--0--0--0--0--0--
A-----------------------------------------------------------------------------------------------------------
E-----------------------------------------------------------------------------------------------------------

"Don't want to be an actor, pretending on a stage...."


-5-                                                   -5-
-1-                                                   -x-
-2-                                                   -5-
-0- is a difficult reach, and can be substituted by   -0-
---                                                   ---
---                                                   ---
[ Tab from: http://www.guitartabs.cc/tabs/p/phish/waste_correct_tab.html ]
e--3-------3-------3-------3------3-----3-----3-----3-----
B--3-------3-------3-------3------2-----2-----2-----2-----
G--4-------4-------3-------3------3-----3-----3-----3-----
D--5---5---5---5---5---5---5---5--0--0--0--0--0--0--0--0--
A---------------------------------------------------------
E---------------------------------------------------------

"A dream, it's true..."



e--5-----5-----5-----5-----5-----5-----3---2---0-----3-------3-------3-------3------3-----3-----3-----3-----
B--3-----3-----2-----2-----1-----1-----3---3---3-----3-------3-------3-------3------2-----2-----2-----2-----
G--2-----2-----2-----2-----2-----2-----2---2---2-----4-------4-------3-------3------3-----3-----3-----3-----
D--0--0--0--0--0--0--0--0--0--0--0--0----------------5---5---5---5---5---5---5---5--0--0--0--0--0--0--0--0--
A-----------------------------------------------------------------------------------------------------------
E-----------------------------------------------------------------------------------------------------------

"If i could be wasting my time, with you."


e---8-------3-----3------5-------
B---10------5-----3------7-------
G---10------5-----4------7-------
D---10------5-----5------7------- 
A---8-------3-----5------5-------
E---8-------3-----3------5-------

"So if i'm inside your head, don't believe what you might have read"



e---3-----5------3-------
B---3-----5------5-------
G---4-----6------5-------
D---5-----7------5-------
A---5-----7------3-------
E---3-----5------3-------

"Come waste your time with me.."


There ya go, any questions, comments, concerns email me at DKelly184@aol.com. 

Pharewell everyone and enjoy.
Comments