Phish - Twist Chords & Tabs

 

Twist Chords & Tabs

Phish Chords & Tabs

Version: 2 Type: Bass Tab 0 ratings
1 star 2 stars 3 stars 4 stars 5 stars
comments

Twist Bass Tab

phish
twis
farmhouse

I thought this tab was up in the archive but i looked for it the other day and 
it was gone, so Im reposting it.

intro


g--------------------------------------------------------
d--5------3----------------------------------------------
a-----5-------3----5----5--------3-----------------------
e----------------------------6--------3------------------


verse
[ Tab from: http://www.guitartabs.cc/tabs/p/phish/twist_btab_ver_2.html ]
g-----------------------------------
d------------------------------------
a--------3---3--5-5------------------
e-3--6-------------------------------

fill at end of verse
when you use the fill, drop the second d (5) from the end of the verse and go 
right into the fill
g-------3--------
d-3--5------5----
a----------------
e----------------


g---------------------------------
d--5---3--------------------------
a----------5---3------------------
e------------------------6---3----

the parts of the songs are easy to pick out from listening to the cd. If you 
are the original tabber of this song let me know so you can get credit for it. 
osul1168@mail.plattsburgh.edu
Comments