Phish - Tweezer Chords & Tabs

 

Tweezer Chords & Tabs

Phish Chords & Tabs

Version: 1 Type: Tab 0 ratings
1 star 2 stars 3 stars 4 stars 5 stars
comments

Tweezer Tab

#----------------------------------PLEASE NOTE---------------------------------#
#This file is the author's own work and represents their interpretation of the #
#song. You may only use this file for private study, scholarship, or research. #
#------------------------------------------------------------------------------#

From 206.25.244.41@horn41.vivanet.com Fri Mar 21 11:35:46 1997
Date: Wed, 12 Mar 1997 20:12:57 -0400
From: Justin Godown 
To: "'guitar@olga.net'" 
Subject: tab: tweezer by phish

Subject: Tweezer by Phish
Written by Phish
>From the album: Picture of Nectar
Copyright 1992
transcribed by Justin Godown
parkauto@vivanet.com



I just transcribed this last night, and I'm pretty sure it's right.  If you have any questions, or comments, or if you need help on any song, feel free to E-mail me.



Main Riff

E--------------------------------------------------||-
B--------------------------------------------------||-
G--------------------------------------------------||-
D---------7p0-----5p0------------------------------||-
A--------------0-------0---7p0--0--5p0--3b---------||-
E-----5--------------------------------------------||-
[ Tab from: http://www.guitartabs.cc/tabs/p/phish/tweezer_tab.html ]
Play this as many times as needed.


Play this twice.

E-------------------------------||-
B----7--------------------------||-
G----7--------------------------||-
D----7------10h12---------------||-
A----5------0-------------------||-
E-------------------------------||-


Good luck.


********************************************************************************************************************************

********************************************************************************************************************************


Transcribed by Eli (Spiny3@AOL.com)



Main riff:

e|------------------------------------------------------------------------------||
B|------------------------------------------------------------------------------||
G|------------------------------------------------------------------------------||
D|------7-----5------2----------------------------------------------------------||
A|--0----0-0---0-0---0-0-0---5--0--3^----0--------------------------------------||
E|------------------------------------------------------------------------------||




This is all I've got so far.  It's a start.  Help me out  Spiny3@AOL.com
thanks

Comments