Phish - The Inlaw Josie Wales Chords & Tabs

 

The Inlaw Josie Wales Chords & Tabs

Phish Chords & Tabs

Version: 1 Type: Tab 0 ratings
1 star 2 stars 3 stars 4 stars 5 stars
comments

The Inlaw Josie Wales Tab

Song: The Inlaw Josie Wales
Artist: Phish
Album: Farmhouse
Tabbed by: K to the L,U,B



Hey dudes!
Just thought you might want an accurate tab after seeing all the completely wrong ones
on the net.  I’ve never even seen anyone figure out the correct tuning.  I’m pretty sure it’s
right, it sounds perfect if you are really experienced with finger picking.

The tuning is really easy to get right.  Just tune your 1st, 2nd, and 3rd strings down one step.

S=slide
(#)=Harmonics
bp=bend1/4 note then pull-off

D |--0---------------------------------------------------------------|   Repeat 3X
A |---------------------0----------------0----------------0----------|
G |------------0----------------0----------------0-------------------|
D |--2s4----------4----------------4----------------4----------------|
A |--------5----------------5----------------5----------------5------|
D |------------------------------------------------------------------|


D |----12------9--------10----------7---------5----------5---------3---------2----------|
A |----10-----10---------8----------8---------7----------5---------3---------3----------|
G |----11------9---------9----------7---------7----------5---------4---------2----------|
D |-----0----------0-----------0----------0--------0-----------0---------0---------0----|
A |-------------------------------------------------------------------------------------|
D |--0---------0---------0----------0---------0----------0---------0---------0----------|
[ Tab from: http://www.guitartabs.cc/tabs/p/phish/the_inlaw_josie_wales_tab.html ]
                                                                       
D |--0-----------------------------------------------------(5)----------------|
A |----------------------------------0---------------------(5)----------------|
G |---------0-----3-------------0---------------------------------------------|
D |------2-----------2-------0-------------0------0---------------------------|
A |--3---------3-------------------------------------------------0----0---0---|
D |-----------------------5--------------3-----2------0-------0----0----0-----|

***
D |---------------------0--------------------------------------(7)-----------------------|
A |----0------0-------------------0----------------------------(7)----------------0------|
G |----6------6--------------0----------------------------------------------0------------|
D |----7----------7-------7-------7---7----------------------------------0-----------0---|
A |-0-----0-------------0---------0--------------0--------0------------------------------|
D |----------------------------------------4bp0------0----------------0--------0---------|


D |---------------------0----------------------------0---------------------------------------------|
A |----0------0-----------------------0---------------------------------0--------------0-----------| Repeat
G |----6------6-------------------0------------6--------6p4p0---------------------0--------2-------|from ***
D |----7-----------7---------7--------7----7----------------------0h5-------0h4------------------0-|
A |-0------0------------0-------------0------------------------------------------------------------|
D |---------------------------------------------------------------------------------------------0--|

This is all I have time for right now.  Tabbing takes a lot longer than I'd ever imagined.
I'll finish once I got time to.

Honor and Harmony,
Enjoi!       Lubnub69@aol.com

				p.s. I’ve actually pulled muscles in my 
				fingers playing this song. Again, good luck!
Comments