Phish - Stir It Up Jam Chords & Tabs

 

Stir It Up Jam Chords & Tabs

Phish Chords & Tabs

Version: 2 Type: Bass Tab 0 ratings
1 star 2 stars 3 stars 4 stars 5 stars
comments

Stir It Up Jam Bass Tab

Phish- Stir it up Jam

(main riff)
G-----------------------------------------------------------
D-------------------------4-7-------6-9---------------------
A-------4-4--5-5--4-4--5-------5>7--------------------------
E--5-5------------------------------------------------------
[ Tab from: http://www.guitartabs.cc/tabs/p/phish/stir_it_up_jam_btab_ver_2.html ]
(alternate riff mike plays aometimes during the jam)
G-----------------------------------------------------------
D---------------------------4-7-------6-9-------------------
A--------4-44--5555-4-44-5-------5>7------------------------
E--5-55-----------------------------------------------------

(verse)
G-----------------------------------------------------------
D------------------------------4----------------------------
A------------4-------5-5--7-7-----5-------------------------
E--5-5--7-7-----5-------------------------------------------

Fun easy reggae.  Enjoy!

-Petee
Comments