Phish - Split Open And Melt Chords & Tabs

 

Split Open And Melt Chords & Tabs

Phish Chords & Tabs

Version: 1 Type: Bass Tab 0 ratings
1 star 2 stars 3 stars 4 stars 5 stars
comments

Split Open And Melt Bass Tab

G|-----------9-9-9-9-----14h12----------------------------------------------|
D|--------------------7---------14--12----------------------------7p5-------|
A|--5--6--7-----------------------------14-14-12-12-10-10-7-7----------7p5--|
E|-------------------------------------------------------------5------------|
[ Tab from: http://www.guitartabs.cc/tabs/p/phish/split_open_and_melt_btab.html ]
G|--------------------------------------------------------------------------|
D|------5-4-----------------------------------------------------------------|
A|--5-7-----5-7-----4---------------------4-5-6-7---------------------------|
E|--------------6-5------------Repeat---------------------------------------|

   Chorus
G|-1-1-2---------1-1-2-----4-----1-1-2--------------------------------------|
D|--------------------------------------------------------------------------|
A|-------1-2-3-4-------1-2---3-4--------------------------------------------|
E|--------------------------------------------Repeat------------------------|
Comments