Phish - Sleep Chords & Tabs

 

Sleep Chords & Tabs

Phish Chords & Tabs

Version: 3 Type: Tab 0 ratings
1 star 2 stars 3 stars 4 stars 5 stars
comments

Sleep Tab

 Artist:Phish
 Song:Sleep
 Tabbed by: Lubnub
 This is a tough song to play if you don't have previous finger
 picking experience. I think it's right. When I play along with the
 CD It matches note for note.

 Here goes nothing...
[ Tab from: http://www.guitartabs.cc/tabs/p/phish/sleep_tab_ver_3.html ]
e-10-------8-------------------------------------------------------|
B------------------0h1-------------1-----3------1------1----1---0--|
G----0---------0-------0---------0---------------------------------|
D------9-----7-----------2-0---2---------3------2------2----2---0--|
A-10-------8------3----------3-------------------------------------|
E--------------------------------------3------3------3----3----3---|

That is played throughout most of the song.

 Bridge:

e-----------------------------------3-----------------------3---------|
B--------3------1------------------------------0--0-------------------|
G-----------------------0----------------------0------0-------------0-|
D-2-------------3---------------------------0-------------------------|
A---------------------------------------------------------------------|
E-1----------------------------3---------3---------------3------3-----|

This is all I have so far.  I'll post the rest when/if I figure it out.
Comments