Phish - Roses Are Free Chords & Tabs

 

Roses Are Free Chords & Tabs

Phish Chords & Tabs

Version: 2 Type: Tab 0 ratings
1 star 2 stars 3 stars 4 stars 5 stars
comments

Roses Are Free Tab

   
Intro:

|--------------------------------------------------------------------|
|--------------------------------------------------------------------|
|--------------------------------------------------------------------|
|---------------8-------------------8--------------------------------|
|---------------8-------------------8--------------------------------|
|----6-----6----6----6----6----6----6----0---------------------------|

|-------------10--------------------10-------------------------------|
|-------------10--------------------10-------------------------------|
|-------------10--------------------10-------------------------------|
|-------------10--------------------10-------------------------------|
|----8---8----8------8----8----8----8------0-------------------------|
|--------------------------------------------------------------------|

|------------8-------------------8-------------------------------------|
|------------8-------------------8-------------------------------------|
|------------8-------------------8-------------------------------------|
|------------8-------------------8-------------------------------------|
|--6----6----6----6----6----6----6----0--------------------------------|
|----------------------------------------------------------------------|

Repeat the intro throughout the versus also

Chorus:

|----------------------------------------------------------------------|
|----------------------------------------------------------------------|
|----------------------------------------------------------------------|
|---3---3-------5----5-------6---6--------7----7----7------------------|
|---3---3-------5----5-------6---6--------7----7----7------------------|
|---1---1---0---3----3---0---4---4---0----5----5----5----6---6---6-----|

[ Tab from: http://www.guitartabs.cc/tabs/p/phish/roses_are_free_tab_ver_2.html ]
|----------------------------------------------------------------------|
|----------------------------------------------------------------------|
|----------------------------------------------------------------------|
|--8------------8---------------8-------------8------------------------|
|--8------------8---------------8-------------8------------------------|
|--6---6--6--6--6---6---6---6---6----6--6--6--6------------------------|
Repeat 2x


b=bend
h=hammer on
Solo:
|--------------------------------------------------------------------|
|--------------------------------------------------------------------|
|-----9b----9----7-------------9----7--------9-----7-----------------|
|--------------------9----7--------------9--------------9------------|
|--------------------------------------------------------------------|
|--------------------------------------------------------------------|

|--------------------------------------------------------------------|
|--------------------------------------------------------------------|
|------------7-------------------7---------------------7-------------|
|----7h9-----------9------7h9---------9---------7h9----------9-------|
|--------------------------------------------------------------------|
|--------------------------------------------------------------------|


|--------------------------------------------------------------------|
|--------------------------------------------------------------------|
|--------------------------------------------------------------------|
|-----------7------9b----9b----9-----7-------------------------------|
|----7h9-------------------------------------------------------------|
|--------------------------------------------------------------------|


thats it.
i am fourteen and this is my first tab so i would like to hear what you think about it.
Comments