Phish - Prince Caspian Chords & Tabs

 

Prince Caspian Chords & Tabs

Phish Chords & Tabs

Version: 1 Type: Tab 0 ratings
1 star 2 stars 3 stars 4 stars 5 stars
comments

Prince Caspian Tab

   
SONG: Prince Caspian
ARTIST: Phish
ALBUM: Billy Breathes
TABBED BY: Tedrick

I was looking at the only tab for this song on UG and determined it was wrong so I
decided to tab it for myself and share it with you guys. Lucky you! ;) Anyway I love
Phish (I live in Vermont where they started) so hereís my interpretation of Prince
Caspian.

Standard Tuning and Some Distortion


This song starts off with a long intro that I wont bother tabbing out, but then some
distorted guitar comes in at about 1:34 (which is the part that I tabbed out) Note that
I use the chords G9 and C9 but you could also use G and C9, in my opinion it doesnít
make a huge difference and G9 and C9 are easier to play 

INTRO
   G9       C9           G9       C9           G9       C9
E|-3---3--3-3-3-3--------3---3--3-3-3-3--3-3---3---3--3-3-3-3--3-3-3-|
B|-3---3--3-3-3-3--------3---3--3-3-3-3--3-3---3---3--3-3-3-3--3-3-3-|
G|-0---0--0-0-0-0--------0---0--0-0-0-0--0-0---0---0--0-0-0-0--0-0-0-|
D|-0---0--0-2-2-2--------0---0--0-2-2-2--2-2---0---0--0-2-2-2--2-2-2-|
A|-2---2--2-3-3-3--------2---2--2-3-3-3--3-3---2---2--2-3-3-3--3-3-3-|
E|-3---3--3--------------3---3--3--------------3---3--3--------------|


MAIN RIFF
   G9       C9           G9       C9           G9       C9           G9
E|-3---3--3-3-3-3--3-3-3-3---3--3-3-3-3--3-3-3-3---3--3-3-3-3--3-3-3-3---3-
B|-3---3--3-3-3-3--3-3-3-3---3--3-3-3-3--3-3-3-3---3--3-3-3-3--3-3-3-3---3-
G|-0---0--0-0-0-0--0-0-0-0---0--0-0-0-0--0-0-0-0---0--0-0-0-0--0-0-0-0---0-
D|-0---0--0-2-2-2--2-2-2-0---0--0-2-2-2--2-2-2-0---0--0-2-2-2--2-2-2-0---0-
A|-2---2--2-3-3-3--3-3-3-2---2--2-3-3-3--3-3-3-2---2--2-3-3-3--3-3-3-2---2-
E|-3---3--3--------------3---3--3--------------3---3--3--------------3---3-
   Oh,              to be Prince Caspian     afloat upon the waves

   C9
-3-3-3-3--3-3-3-|
-3-3-3-3--3-3-3-|
-0-0-0-0--0-0-0-|
-0-2-2-2--2-2-2-|
-2-3-3-3--3-3-3-|
-3--------------|

[ Tab from: http://www.guitartabs.cc/tabs/p/phish/prince_caspian_tab.html ]
RIFF 2
   C9                  G9                D                  C9
E|-3-------------------3-----------------2------------------3---|
B|-3-------------------3-----------------3------------------3---|
G|-0-------------------0-----------------2------------------0---|
D|-2-------------------0-----------------0------------------2---|
A|-3-------------------2------------------------------------3---|
E|---------------------3----------------------------------------|
   With nothing to return to but the demons in their caves

If you listen closely to the ďAnd the children in the fields all sowing seed and
chaffing wheatĒ part you will hear a guitar part thatís a bunch of single notes
being played fast. Itís really hard to tell what Tre is playing but itís probably
a few notes in the G major scale. Iíll take a wild stab at it, its something like.

RIFF 3
E|-8-10-10-10-8-10-8-10-8-|
B|------------------------|
G|------------------------|
D|------------------------|
A|------------------------|
E|------------------------|

The outro Iím also not totally sure about but again Iíll try...

OUTRO
E|------------------------|
B|------------------------|
G|------------------------|
D|--------0---------------|
A|-5^-4-3----3-3-3--------|
E|------------------------|

(1.34) [INTRO]

(1.46) Oh, to be prince caspian afloat upon the waves [MAIN RIFF]
(1.59) Oh, to be prince caspian afloat upon the waves [MAIN RIFF]
(2.12) Oh, to be prince caspian afloat upon the waves [MAIN RIFF]
(2.25) Oh, to be prince caspian, [MAIN RIFF x.5]
(2.31) With nothing to return to but the demons in their caves [RIFF 2]

(2.38) Oh, to be prince caspian afloat upon the waves [MAIN RIFF]
(2.50) Oh, to be prince caspian afloat upon the waves [MAIN RIFF]
(3.03) Oh, to be prince caspian afloat upon the waves [MAIN RIFF]
(3.16) Oh, to be prince caspian, [MAIN RIFF x.5]
(3.21) And the children in the fields all sowing seed and chaffing wheat [RIFF 3]
(3.28) Oh, to be prince caspian with stumps instead of feet [RIFF 3]

(3.35) Oh to be prince Caspian [RIFF 3]
(3.41) Oh to be prince Caspian [RIFF 3]
(3.48) Oh to be prince Caspian [RIFF 3]
(3.54) Oh... [RIFF 3]

(4.54) [OUTRO]

Well thatís it, Iím almost positive the chords are right but RIFF 3 and the OUTRO are a
little shaky, anyway, I might tab out the actual intro (0.00-1.34) so look for it. Have
fun!
Comments