Phish - Possum Chords & Tabs

 

Possum Chords & Tabs

Phish Chords & Tabs

Version: 2 Type: Bass Tab 0 ratings
1 star 2 stars 3 stars 4 stars 5 stars
comments

Possum Bass Tab

Phish- Possum

Intro:
G--------------------- 2---2------------------------>
D-2---2-----2---2-------2---2-5---2----2---------->
A---2---2-5---2---2-5---------------2----2-5------>
E--------------------------------------------------->

<-4---4------------------------------------
<---4---4-7-5----7----9-7-6-5-4-4-4-4-4--
<--------------5----7----------------------
<------------------------------------------
[ Tab from: http://www.guitartabs.cc/tabs/p/phish/possum_btab_ver_2.html ]
Verse:
G----------------------------------------------2---2----->
D-2---2-----2---2-----2---2------2----2---------2---2-5->
A---2---2-5---2---2-5---2---2-5----2----2-5------------->
E--------------------------------------------------------->

<-2---2--------------------------------4---4----------->
<---2---2-5-----2----2------2---2-------4---4-7-5--7-->
<------------------2----2-5---2---2-5-------------5--7->
<------------------------------------------------------->

<--------------------
<-9-7-6-5-4-4-4-4-4-
<--------------------
<--------------------

If you know the songs its so very easy.
Comments