Phish - Pebbles And Marbles Chords & Tabs

 

Pebbles And Marbles Chords & Tabs

Phish Chords & Tabs

Version: 1 Type: Tab

Pebbles And Marbles Tab

   
This is the little riff after the couple of chords.


e|-----------------0--3--0--------------|
B|-------0h3----0-------------3-----2---|
G|----(0)------------------------------.|
D|-2-----------------------------------.|
A|--------------------------------------|
E|--------------------------------------|

The next chords that i know are C Bm Am and G#m but I think he plays them this way 
of normal bar chords
[ Tab from: http://www.guitartabs.cc/tabs/p/phish/pebbles_and_marbles_tab.html ]
       C        Bm
e|-------------------------------------------------------------------------|
B|-----13-------12---------------------------------------------------------|
G|-----12-------11---------------------------------------------------------|
D|-----14-------12---------------------------------------------------------|
A|-------------------------------------------------------------------------|
E|-------------------------------------------------------------------------|

Am and G#m are the same as Bm only moved down 1 and 2 frets respectively
I didnt take the time to figure out the rest of the chords or tab for the rest of the 
but if it helps anyone else that wants to try (and pease do {I'm stumped]) it's in E, or 
or e something.

}<> }<> }<> }<> good luck, nic <>{ <>{ <>{ <>{