Phish - Mike's Song Chords & Tabs

 

Mike's Song Chords & Tabs

Phish Chords & Tabs

Version: 3 Type: Tab 0 ratings
1 star 2 stars 3 stars 4 stars 5 stars
comments

Mike's Song Tab

   
e|-------------------------------------------------|
B|-------------------------------------------------|
G|-------------------------9--9h11-9h11------------|
D|--------------------9h11----0----0----9h11----11v| a couple times
A|-----------10-11-12-------------------0-----0----|
E|-9-9-12-12---------------------------------------|

e|-------------------------------------------------|
B|-------------------------------------------------|
G|-------------------------9--9h11-9h11------------|
D|--------------------9h11----0----0----9h11----11v|
A|-----------10-11-12-------------------0-----0----|
E|--bass drum--------------------------------------|

[ Tab from: http://www.guitartabs.cc/tabs/p/phish/mikes_song_tab_ver_3.html ]
 RIFF 1
e|-------------------------------------------------|
B|-------------------------------------------------|
G|-------------------------------------------------|
D|-11b13p9-----------------------------------------| 
A|--------11---------------------------------------|
E|-------------------------------------------------|

Riff 2

e|-------------------------------------------------|
B|--9h12p9h12p9h12p9h12p9--------------------------|
G|-------------------------------------------------|
D|-------------------------------------------------| 
A|-------------------------------------------------|
E|-------------------------------------------------|


Chord Progression: C#m D A

just solo off c#m blues scale



for bridge email me at phish_44_rocks_79@yahoo.com
Comments