Phish - Mikes Groove Chords & Tabs

 

Mikes Groove Chords & Tabs

Phish Chords & Tabs

Version: 1 Type: Tab 0 ratings
1 star 2 stars 3 stars 4 stars 5 stars
comments

Mikes Groove Tab

   
#----------------------------------PLEASE NOTE---------------------------------#
#This file is the author's own work and represents their interpretation of the #
#song. You may only use this file for private study, scholarship, or research. #
#------------------------------------------------------------------------------#
Date: Wed, 11 Oct 1995 19:40:43 EDT
From: AKRR70B@prodigy.com (EMIL HEDAYA)

BAND :  PHiSH

                =======================================
===========MIKE'S GROOVE===============
                =======================================

[Mike's Song, I am Hydrogen, Weekapaug Groove]

By PHISH

Here's my complete version of all three songs, usually played 
together at concerts in the order I will transcribe them.  Thanks a 
lot to kcjonz@wam.umd.edu for two of the three songs.. I uploaded the 
chords to I Am Hydrogen, and saw the other two up there, and figured 
I'd make it into one file entry.  I play them together, because they 
go together.  Here they are:

================
Mike's Song    |
================

Intro Riff, repeat through verse

      C#m                            D        A
E|-----------------------------|----------------------------
B|-----------------------------|-10--10-10---10-------------
G|--------------------------9--|-11--11-11----9-------------
D|---------------------9-11----|-12--12-12---11-------------
A|----------9--9-10-11---------|----------------------------
E|-9-9-12----------------------|----------------------------
 
 ^Verses start on this note: C#m  D  A
  ====================================
   E
   trill + 2  +  3  +  4 +
E|--------------------------|
B|--------------------------|
G|--------------------------|
D|--------------------------|
A|9-11-^^^^^^^^^^^^^^^^-----|
E|---------------------12---|

       H-O   P-O  S\                     H-O   P-O  S\        
E|---------------------------------|-----------------------------|
B|-9-9-9-10-10-9-9-7-----7-----12--|-9-9-9-10-10-9-9-7-7-12------|
G|-9-9-9--9--9-9-9-7-----7-----11--|-9-9-9--9--9-9-9-7-7-11------|
D|-9-9-9-11-11-9-9-7-----7-----13--|-9-9-9-11-11-9-9-7-7-13------|
A|---------------------------------|-----------------------------|
E|---------------------------------|-----------------------------|
            [Trey] Me no are no nice guy             Me...nice
                       [Paige]Me no are no nice guy      Me...nice
       H-O   P-O  S\                     H-O   P-O  S\        
E|---------------------------------|--------------------7---8----|
B|-9-9-9-10-10-9-9-7-----7-----12--|-9-9-9-10-10-9-9-7-x7-x-8----|
G|-9-9-9--9--9-9-9-7-----7-----11--|-9-9-9--9--9-9-9-7-x8-x-8----|
D|-9-9-9-11-11-9-9-7-----7-----13--|-9-9-9-11-11-9-9-7-x9-x10----|
A|---------------------------------|--------------------9--10----|
E|---------------------------------|--------------------7---8----|
            [Trey] Me no are no nice guy           [Mike] I-i-i...
                       [Paige]Me no are no nice guy  

 [same chords as earlier]


Me no are no nice guys (x3)

Then go stacatto between these two chord formations :

E|-------|
B|---9-7-|
G|---9-7-|
D|---9-7-|
A|-------|
E|-------|

Then back to the "me no are no nice guys" riff, then back to the 
stacatto chords, then switch over to :
[ Tab from: http://www.guitartabs.cc/tabs/p/phish/mikes_groove_tab.html ]
F#m7 --> B   back and forth for a LONG time
D E F#m7 a couple of times, back to F#m7 --> B then
D E F#m7 twice, then the 12-tone chromatic walkdown from F#-& to 
|F#m7 A E F :| repeaded 8 times, stopping on the E and letting it 
ring on the last time. 

===================
I am Hydrogen     |
===================

Background alternating between E and A chords.



After a few bars of alternating between the chords F 
and B ... 

    A                       E

E------9---------9-7--------7-----------------------
B---------------------10--9----10--9-7--------------
G---9--------9----------------------------9---------
D---------------------------------------------------
A---------------------------------------------------
E---------------------------------------------------

   A                         E

E------9---------9-7------------------
B---------------------10--9-----------
G------------9----------------9-------
D-------------------------------------
A-------------------------------------
E-------------------------------------

The above repeats a couple of times before going onto
this:

     A                           E
E----(7)-9-----7--9-12-----9-12-14----12-14-13------
B---------------------------------------------------
G---9-----------------------------------------------
D---------------------------------------------------
A---------------------------------------------------
E---------------------------------------------------
          A                    E
E--14-16-17----16-17-19-17-16-12--------------------
B---------------------------------------------------
G---------------------------------------------------
D---------------------------------------------------
A---------------------------------------------------
E---------------------------------------------------


Then back to the first part a couple more times

After that, it goes something like this :

E----(7)--9----7--9-7--------9---------9-12-11-12---
B---------------------10--9---------9---------------
G--9------------------------------------------------
D---------------------------------------------------
A---------------------------------------------------
E---------------------------------------------------

E-14-12-11--9-12-11--9------------------------------
B----------------------12---------------------------
G---------------------------------------------------
D---------------------------------------------------
A---------------------------------------------------
E---------------------------------------------------

Then comes a bunch of ascending scales alternating
between Paige and Trey, but I couldn't get those down.
After that, hit an E chord and let it ring into Weekapaug...

=================
Weekapaug Groove|
=================

E|----------------------------------------------------|
B|-7-7-7-8-8-7-7-5--5--8------------------------------|
G|-7-7-7-7-7-7-7-5--5--7------------------------------|
D|-7-7-7-9-9-7-7-5--5--9------------------------------|
A|--9-9------------------7-9--------------------------|
E|----------------------------------------------------|

Tryin' to make a woman match your moves
And we're sharing in the Weekapaug Groove.




  That's it.

================================================================
| Emil Hedaya, AKRR70B@PRODIGY.COM | K12GNHHE@VAXC.HOFSTRA.EDU |
| "You can feel good about Hood!"  | "Been you to have any     |
|__________________________________|__spice, man?"_____________|
Comments