Phish - Julius Chords & Tabs

 

Julius Chords & Tabs

Phish Chords & Tabs

Version: 1 Type: Bass Tab

Julius Bass Tab

   
-------------------------------------------------------------------------------
			     Julius - Phish
-------------------------------------------------------------------------------

Tabbed By : Pauly S

Intro:
G|----------------------------------------------------------|
D|-0-0-0-0-0-0-0---------------2-2-2-2-2-2-2--0-0-0-0-0-0-0-|
A|---------------0-0-0-0-0-0-0------------------------------|
E|----------------------------------------------------------|

G|-----2--------------2--------|
D|---2---2--0-------2---2--0---|
A|-0----------3---0----------3-|
E|-----------------------------|

Verse:
G|---------0-2-----0-2---|-----------|
D|*------2-----2-2------*|-0---------|
A|*--0-0----------------*|----3------|
E|-----------------------|-----------|

G|-------0-2--------|
D|-----2------------|
A|-0-0--------2-3-4-| (repeat first half of intro)
E|------------------|

At this point, Mike takes a bunch of ideas and shuffles them around
randomly.  They are all the same idea, over about two different octaves.
The chords alternate between A and D, so I will show you each different
way of doing each chord.
[ Tab from: http://www.guitartabs.cc/tabs/p/phish/julius_btab.html ]
Chorus:
G|-----------------|-------------0-1-2-|-2-0-------------|-2-4-5-6-7-5-4-3-|
D|---------0-------|-----2-1-0-4-------|-----4-2-0-------|-----------------|
A|0-2-3-4----------|-0-4---------------|-----------3-2-1-|-----------------|
E|-----------2-3-4-|-------------------|-----------------|-----------------|

These all can be played interchangebly.  It's a really fun part to jam
on.  Just go crazy.

Horn solo:
G|---------------------2-0-------------------|
D|-0---------------0-4-----4-2-0-------------|
A|---------0-2-3-4---------------0-0-0-0-0-0-|
E|---2-3-4-----------------------------------|

For the second half of the horn solo, Mike does a simple variation of
the first half (the same, what I call, "climbing jazz bass"), but
instead of end on the D, be ends on an E, like so:

G|---------------------------|
D|-2-1-0---------------------|
A|-------4-3-2-1-0-----------|
E|-----------------4-3-2-1-0-|

During the "oom-pah-pah, oom-pah-pah" break, he just slides down the
fretboard.  Pretty simple song, really, but a helluva lot of fun to
play.


| /  slide up
| \  slide down
| h  hammer-on
| p  pull-off
| ~  vibrato
| +  harmonic
| x  Mute note
===============================================================================