Phish - Hahaha Chords & Tabs

 

Hahaha Chords & Tabs

Phish Chords & Tabs

Version: 1 Type: Bass Tab 0 ratings
1 star 2 stars 3 stars 4 stars 5 stars
comments

Hahaha Bass Tab

Phish-HaHaHa
(Its VERY easy if you know the song)

Intro/Ending
-----------------------------------------------------------------
--0--------------------------------------------------------------
----3-3-3-1------------------------------------------------------
-------------3----(3-3-3-3)--------------------------------------

Main Riff
--8---6----------------------------------------------------------
----8---6----4-5-6-7--------------------------------------------
-----------------------------------------------------------------
-----------------------------------------------------------------
[ Tab from: http://www.guitartabs.cc/tabs/p/phish/hahaha_btab.html ]
Chorus
--8---------------8----------------8-----------------------------
----8---hahahaha----8---hahahaha-----8---hahahaha----------------
-----------------------------------------------------------------
-----------------------------------------------------------------

Other part
---8---6---------------------------------------------------------
-----8---6--4----(drum part)--------------------------------------
-----------------------------------------------------------------
-----------------------------------------------------------------
(Order)
Intro
Main Riff (3x)
Intro
Main Riff (3x)
Intro
Chorus (3x)
Intro
Chorus (3x)
Intro
Other Part (3x)
Main Riff (3x)
Intro
Main Riff (3x)
Ending

Comments