Phish - Guyute Chords & Tabs

 

Guyute Chords & Tabs

Phish Chords & Tabs

Version: 3 Type: Tab 0 ratings
1 star 2 stars 3 stars 4 stars 5 stars
comments

Guyute Tab

   
Guyute
by Phish

Intro:
C G F C
  C    G       F      G
Guyute was the ugly    pig
   C          G       F        G
Who walked on me and danced a jig
     C      G             F       G
That he had learned when he was six
     C           G        F      G
Then stopped and did some other tricks
     Am      G        C        D
Like pulling weapons from his coat
   C        G     C           F
And holding them against my throat
   C        G     C         F
He lectured me in language strange
    C          G        F      C
Then scampered quickly out of range
[Repeat Chords, whistling over ]
[Repeat again, stopping at "coat" (D)]

Play 2x
Let ring------------>     Am  G   C
E-2-2---3---5----2---3--------3---0-------------------------
B-3--3---3--3-----3---3---1---0---1-------------------------
G-2---2---2-2------2---2--2---0---0-------------------------
D-0---------0-------------2---0---2-------------------------
A-------------------------0-------3-------------------------
E-----------------------------3-----------------------------
Play 2x
Am G          H-O P-O P-O P-O      D     C
E-------------------------------0----0-------------------
B---10--8-----------------------3----1-------------------
G----9--7---0-2-4-0----0--------0----0-------------------
D---10--9----------2-0----------4----2-------------------
A-------------------------------5----3-------------------
E--------------------------------------------------------
Play 2x
Let ring------------>     Am   G    C
E-2-2---3---5----2---3---------3----0-------------------------
B-3--3---3--------3---3---1----0----1-------------------------
G-2---2---2--------2---2--2----0----0-------------------------
D-0-----------------------2----0----2-------------------------
A-------------------------0---------3-------------------------
E------------------------------3-------------------------
Play 2x
    Am  G    H-O P-O P-O P-O      D    C
E---------------------------------0----0-------------------
B---10--8-------------------------3----1-------------------
G----9--7---0-2-4-0------0--------0----0-------------------
D---10--9------------2-0----------4----2-------------------
A---------------------------------5----3-------------------
E----------------------------------------------------------
Slide
E-------------
B-------------
G-------------
D--2-4-2-0-2-4
A--3-5-3-2-3-5
E-------------

 
                        H-OP-O
E-------------------------------------------------------
B-----1-----3---5>7--5--3-5-3-0----0--------------1-----
G----0------0--------------------4-----0---0------0-----
D---2--------------------------------4---2------0-2-----
A--3----3>5----------------------------------2----3-----
E-------------------------------------------------------
E--------------------------3-5-3-0---------------------------3--
B-----3--5>7--5---3-5-3-0----------3-5-3-0-------------------0--
G----0-------------------------------------2-4-2-0-----------0--
D---4-----------------------------------------------2-4-2-0--0--
A--5------------------------------------------------------------
E------------------------------------------------------------3--

E-------------------------0----0----0-------------------
B----0---0---0---0---0---0----0----0----0---0---0---0---
G---8---4---6---4---4---4----6----4----8---4---6---4----
D--9---6---7---6---4---6----7----6----9---6---7---6-----
A-------------------------------------------------------
E-------------------------------------------------------

E----------------------------------------
B----0---0--------------0----0----0---0--
G---3---3----1--1--1---3----3----1---1---
D--4---4-----2--2--2--4----4----2---2----
A----------------------------------------
E----------------------------------------


E----------------------------------5---6----7-----8------9--------10-12-14-
B----0----0-----0----0---0----0---0---0----0-----0------0------------------
G---8----9----10----9---8----9---6---7----8-----9-----10-----11------------
D--9---10---11----10---9---10---7---8----9----10----11-----12--------------
A--------------------------------------------------------------------------
E--------------------------------------------------------------------------

This Part is VERY Fast & has a country roll going to it
Play x2
                                               
     h p p           h p p          h       p   
------------------------------------------------1--0--------
------------------------------------------------1--1--------
----4-5-4-0---0-0---4-5-4-0---0-0------0--------2--0--------
------------4---------------4------0-2---3>5-0--3--2--------
------------------------------------------------3--3--------
------------------------------------------------------------
(with palm muting)
G F > C 


           G            G            G       F>C
E----------3-----------3-----------3------1-0-------------
B----------0-----------0-----------0------1-1-------------
G----------0-----------0-----------0------2-0-------------
D----------0-----------0-----------0------3-2-------------
A-----------------------------------------4-3-------------
E--3---3---3--3-3---3--3---3-3--3--3--3---1---------------


                                                  
   H H p p             H H p p           H     p 
---------------------------------------------------1--0--
---------------------------------------------------1--1--
--0-4-5-4-0-0---0-0--0-4-5-4-0---0-0------0--------2--0--
--------------4----------------4------0-2---3>5-0--3--2--
---------------------------------------------------3--3--
---------------------------------------------------1-----

    h p p        h p p 
E-----------------------------------------12-10-------------
B----------------------------6-------10-8-------------------
G--4-5-4-0--0-0-4-5-4-0-0-0----5----------------------------
D---------4------------4---------7>9------------------------
A-----------------------------------------------------------
E-----------------------------------------------------------

  H-O P-O                             H-O P-O H-O P-O
E-13-15-13---12-13-12---10-----------12-13-12-10-12-10-9----------
B-------------------------10------10--------------------10--------
G---------------------------11--11------------------------9-------
D-----------------------------12---------------------------11-----
A-----------------------------------------------------------------
E-----------------------------------------------------------------
     H-O P-O H-O P-O H-O P-O
E--15--17--15--14--15--14--12---------------------------------
B----------------------------13------13--12--13--12-10-12-10-8
G------------------------------12--12-------------------------
D--------------------------------14---------------------------
A-------------------------------------------------------------
E-------------------------------------------------------------
E-15-14-13-12---------------------------------------------------
B-x----------13------13---12-----------------10--10-12----------
G-x------------12--12-------12------12-11--11--11-----12--------
D-x--------------14-----------12--12-----12-------------12--12--
A-------------------------------14------------------------14--14
E---------------------------------------------------------------
                                             Slow Bend Up
E---------------------------------------------------------------
B---------------------------------------------------------------
G------12-14-12------12-14-12--11-------------------------------
D----14--------14--12--------12--12-----------------------------
A--15------------14----------------12-9-5-2---------------------
E-------------------------------------------2^(3)---------------

Back to the G F > C Progression, 
Then back to the country part    >(3x)

Last time like this :

  H-O P-O      H-O P-O       H-O P-O      H-O   P-O
E---------------------------------------------------------
B---------------------------------------------------------
G-0-3-4-3-0-0--0-4-5-4-0-0--0-6-7-6-0-0--0-10-11-10-0-0---
D----------------------------------------------------------
A---------------------------------------------------------
E---------------------------------------------------------

                           [G]                     [C]
E----------------------------------------------------------------------3-
B-----------------------1---------------------------------------1---1--0-
G----0--0--0--0--0--0--0----0-4-5-4-0-0---------0-----0----0---2---0---0-
D--12--7--9--5--4--0--2-----------------0-4-5-4---0-2---3>5---3---2----0-
A-14--9-10--7--5--2--3---------------------------------------------------
E----------------------------------------------------------------------3-
Optional First Half
E--------------------------------------------------------------------
B-12----7----8---5----3---0-------1----------------------------------
G---0----0----0---0----0---0-----0---0-4-5-4-0-0------0-0---0-----0--
D----12---10---7---5----5---0---2---------------0-4-5----0-2--3>5---0
A------------------------------3-------------------------------------
E--------------------------------------------------------------------

 
[ Tab from: http://www.guitartabs.cc/tabs/p/phish/guyute_tab_ver_3.html ]
E-----------------12-10-
B----6------10-8--------
G-----5-----------------
D------7>9--------------
A-----------------------
E-----------------------
Then back to:
  H-O P-O                             H-O P-O H-O P-O
E-13-15-13---12-13-12---10-----------12-13-12-10-12-10-9--------
B-------------------------10------10--------------------10------
G---------------------------11--11------------------------9-----
D-----------------------------12---------------------------11---
A---------------------------------------------------------------
E---------------------------------------------------------------
     H-O P-O H-O P-O H-O P-O
E--15--17--15--14--15--14--12---------------------------------
B----------------------------13------13--12--13--12-10-12-10-8
G------------------------------12--12-------------------------
D--------------------------------14---------------------------
A-------------------------------------------------------------
E-------------------------------------------------------------
E-15-14-13-15-12------12-15-------------------14--14-15--------------
B---------------13--13-----15-12--12-15-15--15--15-----15-12---------
G-----------------12------------12--------14----------------12-11-12-
D--------------------------------------------------------------------
A--------------------------------------------------------------------
E--------------------------------------------------------------------

                                A
E--------------------------------------------------
B-----13-15-13--------12-15-12---------------------
G---12--------12----12--------12-11----11----------
D-14--------------12---------------12----12--------
A------------------------------------12----13-14---
E--------------------------------------------------

Repeat, but at A, go to:

E---------------------------------------------------------------------
B--------------14-15-16-15-14--------------------14-15-16-17-18-17-16-
G--14-15-16-17---------------17-16-15-14-15-16-17---------------------
D---------------------------------------------------------------------
A---------------------------------------------------------------------
E---------------------------------------------------------------------

E------------------------------------------14-15-16-15-14----------------
B-15-14---------------------14-15-16-17-18----------------18-17-16-15-14-
G-------17-16-15-14-15-16-17---------------------------------------------
D------------------------------------------------------------------------
A------------------------------------------------------------------------
E------------------------------------------------------------------------

E----------------------------------------------------------------------
B----------------------------------------------------------------------
G--17-16-15-14-13------------------------------------------------------
D-----------------17-16-15-14-13---------------------------------------
A--------------------------------17-16-15-14-13-12-11-. . .-down-------
E----------------------------------------------------------------------


E--------------------------------------------------------------
B--------------------------------------------------------------
G--------------------------------------------------------------
D--2-0-4-0-5-0-4-0-5-0-4-0-2-0-4-0-2-0-4-0-5-0-4-0-5-0-4-0-7---
A--0---0---0---0---0---0---0---0---0---0---0---0---0---0---0--- 
E--------------------------------------------------------------


E----------------------------------------------------------------------
B--5-5-3-5-3-0----3--2-------------------------------------------------
G-------------0---2--2-------------------------------------------------
D--------------0--0--2-------------------------------------------------
A----------------------------------------------------------------------
E----------------------------------------------------------------------

 

      P-O         P-O        P-O       P-O        P-O      P-O
E--------------------------------------------------------------
B--------------------------------------------------------------
G--------------------------------------------------------------
D--------------------------------------------------------------
A----------------------------5-0-------6-0---------5-0-----6-0--
E--3^(4)-0---11^(12)-0-------6-0-------7-0---------6-0-----7-0--


E---------------------------------------------------------------
B---------------------------------------------------------------
G---------------------------------------------------------------
D---------------------------------------------------------------
A--7--0---8--0---and so on...until-13--0--------------------
E--8--0---9--0---------------------14--0-------------



E--------------------------------------------------------------
B--------------------------------------------------------------
G--------------------------------------------------------------
D--2-0-4-0-5-0-4-0-5-0-4-0-2-0-4-0-2-0-4-0-5-0-4-0-5-0-4-0-7---
A--0---0---0---0---0---0---0---0---0---0---0---0---0---0---0--- 
E--------------------------------------------------------------


E--------------------------------------------------------------
B--------------------------------------------------------------
G--------------------------------------------------------------
D--17-16-17-18-17-16-17-18-19-18-19-20-19-18-19-20-... etc.)---
A-0~~~~~~~~~~~~~~~~~ring~~~~~~~~~~~~~~~~~~~~~~~~~~~~~~~~~~~~---
E--------------------------------------------------------------


   G        D          G           C        G         F
                      Hold ....                    Hold...
E-------------------------------------------------------------
B--8--------10-------12---------13-------12-------10----------
G--10^(12)--12^(14)--14^(16)----15^(17)--14^(16)--12^(14)-----
D-------------------------------------------------------------
A-------------------------------------------------------------
E-------------------------------------------------------------
   G        F         Bb       Db        F        F#        E
                     Hold...   Hold...  Hold.... Hold... Hold...
E---------------------------------------------------------------
B--12-------10-------15-------14-------13-------11-------9------
G--14^(16)--12^(14)--17^(19)--16^(18)--15^(17)--13^(15)--11^(13)
D---------------------------------------------------------------
A---------------------------------------------------------------
E---------------------------------------------------------------


    G        D         G        C         G        F
                     Hold...                      Hold...
E--15-------17-------19-------20-------19-------17------------
B--18^(20)--20^(22)--22^(24)--23^(25)--22^(24)--20^(22)-------
G-------------------------------------------------------------
D-------------------------------------------------------------
A-------------------------------------------------------------
E-------------------------------------------------------------
    G         F          Bb      Db       F       F#       E
                        Hold... Hold... Hold... Hold... Hold...
E---19-------17-------------------------------------------------
B---22^(24)--20^(22)----15------14------13------11------9-------
G-----------------------17^(19)-16^(18)-15^(17)-13^(15)-11^(13)-
D---------------------------------------------------------------
A---------------------------------------------------------------
E---------------------------------------------------------------


G+
E---3---
B---4---
G---4---
D---5---
A-------
E-------
The words here are unclear; anyone who knows them please e-mail me
them (tabs@redmedia.com), so here's what I could scrap together..
  I'm bouncing like a newborn elf
  I can't remain inside myself
  Guyute glances in my eyes
  and manages to hypnotize
Then back to the chord progression
    Am      G         C        D
  and as I sleep the sleep of death
   C          G      C    F
  he sucks from me my only breath
      C     G               C      F
  that I had breathed since I was ten
  C         G        F     C
  I hope this happens once again.

Heres the solo over the intro chords:

E------------------------------15-15----------------------------
B-------------------15-17-18]--------17-15---17-----17-15-------
G-----------14-16-17---------------------------17---------------
D--[14-15-17----------------------------------------------------
A---------------------------------------------------------------
E---------------------------------------------------------------
                           
E---------------------------|-----------------------------------
B--17-17--15-15-------------|--------------15----17-15----------
G---------------17-17--14---|--14-14--17-16---17----------------
D------------------------17-|-----------------------------------
A---------------------------|-----------------------------------
E---------------------------|-----------------------------------

E-----------------------15----15-15--15-15--15-15--15-17--------
B----------17-15--18-17----18-----------------------------------
G---17-17-------------------------------------------------------
D---------------------------------------------------------------
A---------------------------------------------------------------
E---------------------------------------------------------------

E---15-15------------------------
B----------17-15-----------------
G----------------17-17--16-17----
D--------------------------------
A--------------------------------
E--------------------------------

Then play 3 distorted C Chords

This may not be perfect but it's damn close. Enjoy!
Comments