Phish - Gotta Jiboo Chords & Tabs

 

Gotta Jiboo Chords & Tabs

Phish Chords & Tabs

Version: 3 Type: Bass Tab

Gotta Jiboo Bass Tab

   
-------------------------------------------------------------------------------
			     Gotta Jiboo - Phish
-------------------------------------------------------------------------------

Tabbed by: Pauly S

G-------------------------------------------------|
D-------------------------------------------------|
A-------7---5-4-5---7-------7---5--4--------------|  Main Theme
E--0--------------------0--------------7---5------|  repeat a lot

[ Tab from: http://www.guitartabs.cc/tabs/p/phish/gotta_jiboo_btab_ver_3.html ]
and then
when the guitar and bass play every other beat
G-------------------------------------------------|
D-----------------------4---6---------------------|   and just keep
A-----------4---5---7-------------------7---5-4-5-|   on with the
E--5---7--------------------------0---------------|   main theme

Just keep on playing the main theme


| /  slide up
| \  slide down
| h  hammer-on
| p  pull-off
| ~  vibrato
| +  harmonic
| x  Mute note
===============================================================================