Phish - First Tube Chords & Tabs

 

First Tube Chords & Tabs

Phish Chords & Tabs

Version: 7 Type: Tab 0 ratings
1 star 2 stars 3 stars 4 stars 5 stars
comments

First Tube Tab

----------------------------------------------------------------------------|
----------------------------------------------------------------------------|
---------------7-------9-7-7-10-9-9----7-7----------------------------------|
----7-7-10-9-9---10-10--------------10-----9-10-10-7------------------------|
--7--------------------------------------------------7----------------------|
----------------------------------------------------------------------------|

----------------------------------------------------------------------------|
----------------------------------------------------------------------------|
---------------7-------9-7-7-10-9-9----7-7----------------------------------|
----7-7-10-9-9---10-10--------------10-----9-7------------------------------|
--7-------------------------------------------------------------------------|
----------------------------------------------------------------------------|

Repeat these two parts 2x

----------|
----------|
----------|
---7-7----|
-7--------|
----------|    13x's

----------------------------------------------------------------------------|
----------------------------------------------------------------------------|
---------------7-------9-7-7-10-9-9----7-7----------------------------------|
----7-7-10-9-9---10-10--------------10-----9-10-10-7------------------------|
--7--------------------------------------------------7----------------------|
----------------------------------------------------------------------------|
[ Tab from: http://www.guitartabs.cc/tabs/p/phish/first_tube_tab_ver_7.html ]
----------------------------------------------------------------------------|
----------------------------------------------------------------------------|
---------------7-------9-7-7-10-9-9----7-7----------------------------------|
----7-7-10-9-9---10-10--------------10-----9-7------------------------------|
--7-------------------------------------------------------------------------|
----------------------------------------------------------------------------|

Repeat these two parts 2x


I havent been able to figure out that strange middle section yet


----------------------------------------------------------------------------|
----------------------------------------------------------------------------|
---------------7-------9-7-7-10-9-9----7-7----------------------------------|
----7-7-10-9-9---10-10--------------10-----9-10-10-7------------------------|
--7--------------------------------------------------7----------------------|
----------------------------------------------------------------------------|

----------------------------------------------------------------------------|
----------------------------------------------------------------------------|
---------------7-------9/10--9-9-9/10-9-9------7-7--------------------------|
----7-7-10-9-9---10-10--------------------10-------9-7----------------------|
--7-------------------------------------------------------------------------|
----------------------------------------------------------------------------|

Repeat these two parts 2x
NOTE : play second part normal on first round then on the second time play it with the 
tablature


well this is my first tab i can't figure out the whole song like in the middle stuff 
r more things i can add but are fairly easy to figure out so enjoy
Comments