Phish - First Tube Chords & Tabs

 

First Tube Chords & Tabs

Phish Chords & Tabs

Version: 6 Type: Tab 0 ratings
1 star 2 stars 3 stars 4 stars 5 stars
comments

First Tube Tab

e-----------------------------------------------------------------|
B-----------------------------------------------------------------|
G------------------7--------9--7-7--10--9-9----7-7----------------|
D----7-7--10--9-9----10-10------------------10-----9--10-10--7----|
A-7-------------------------------------------------------------7-|
E-----------------------------------------------------------------|
[ Tab from: http://www.guitartabs.cc/tabs/p/phish/first_tube_tab_ver_6.html ]
e--------------------------------------------------------|
B--------------------------------------------------------|
G------------------7--------9--7-7--10--9-9----7-7-------|
D----7-7--10--9-9----10-10------------------10------9--7-|
A-7------------------------------------------------------|
E--------------------------------------------------------|

Repeat this over and over until the cows come home.
Sorry, I don't have the rest of the song at this time.
Comments