Phish - First Tube Chords & Tabs

 

First Tube Chords & Tabs

Phish Chords & Tabs

Version: 3 Type: Tab 0 ratings
1 star 2 stars 3 stars 4 stars 5 stars
comments

First Tube Tab

   
Phish: First Tube (full version) this is my first tab so beware!!

Section A

E--------------------------------------------------------------------|----
B-------------------------------5--------6--5--5---------------------|----
G-----------5--4--4---7---5--5-----7--7-----------5--7--7--4--5--5--4|----
D-----7--7-----------------------------------------------------------|----
A--------------------------------------------------------------------|--7-
E--------------------------------------------------------------------|----
[ Tab from: http://www.guitartabs.cc/tabs/p/phish/first_tube_tab_ver_3.html ]
Repeat Above but instead of the '7' on the A string end it the second time
around on the 'D' string

also add after playing the top for awhile then play
D--------7--7------------
A----7-------------------  repeat for so many times
E------------------------

Section B

play 'A' x07555

Section C ( it's like a solo )

E-------5----5~~~~~~~~
B---------------------
G---------------------

Section D

Play     A | D    just major chords here if you like

Basically listen to the song to get the timing down and sections down.
This a great instrumental song by the way.
Comments