Phish - First Tube Chords & Tabs

 

First Tube Chords & Tabs

Phish Chords & Tabs

Version: 1 Type: Tab 0 ratings
1 star 2 stars 3 stars 4 stars 5 stars
comments

First Tube Tab

   
The other tab for this one said it was the full song, but it was missing some parts.


Main riff (this can be played in many positions, this is what I use).
E------------------------------------------------
B-------1-0-0-3-1-1-5-3-3-/6-5-5-1-3-3-0-1-1-----
G---2-2--------------------------------------2---
D-2--------------------------------------------2-
A------------------------------------------------
E------------------------------------------------

E------------------------------------------------
B-------1-0-0-3-1-1-5-3-3-/6-5-5-1-3-3-0---------
G---2-2----------------------------------2-------
D-2----------------------------------------------
A------------------------------------------------
E------------------------------------------------


0:47
E-------
B-------
G---2-2-
D-2-----
A-------
E-------


1:34
E-0-
B-0-
G-x-
D-2-
A-2-
E-0-
[ Tab from: http://www.guitartabs.cc/tabs/p/phish/first_tube_tab.html ]
Variation of main riff
2:14
E------------------------------------------------
B-------1-0-0-3-1-1-/6-5-5-/6-5-5-1-3-3-0--------
G---2-2-----------------------------------2------
D-2----------------------------------------------
A------------------------------------------------
E------------------------------------------------

2:21 (very approximate rythem; I'm not at all 100% on some of these chords, but they sound okay; play either a C or C6 - it doesn't really matter)
E-0--0--0-|-2-3-0-0---0------
B-1--1--1-|-3-1-1-1---1------
G-2--2--2-|-4-0-2-2---2-(x3)-
D-2--2--2-|-4-2-2-2---2------
A-0--0--0-|-2-3-3-0---0------
E---------|------------------
I hope that's not too confusing. That means play the first part once and play the second part (after the bar) 3  times.

2:51
E-5-
B---
G---
D---
A---
E---

3:29
A | D
For the rest of the song you can just play those 2 chords. If you want to solo, use A major pentatonic.


Well, there you go. Hopefully I didn't forget anything. Have fun.
Comments