Phish - Farmhouse Chords & Tabs

 

Farmhouse Chords & Tabs

Phish Chords & Tabs

Version: 5 Type: Tab 0 ratings
1 star 2 stars 3 stars 4 stars 5 stars
comments

Farmhouse Tab

   
                     Farmhouse-phish

tabbed by:mary lynn
email:dazdandconfuzd4@yahoo.com

tuning:standard

verses  C-G-Am-F

e----------------------------------------------------|
b----------------------------------------------------|
g----------------------------------------------------|
d---------------------------9---11----13-------------|
a-----------------9---11-----------------------------|
E----------------------------------------------------|

...when things got bad

chorus C-G-Am-F

First solo
e---------------------------------------------------------------|
b-----------------------8--8h10--8------------------------------|
g---9--9b109------------------------12----------------12-12-----|
d--------------12p--10-----------------12--10-10---10-----------|
a---------------------------------------------------------------|
E---------------------------------------------------------------|

e------------------------------------------------12/13\12-------|
b-------------------------------------15/16\15------------------|
g------------------------9--12-12-12----------------------------|
d---------10--11/12--10-----------------------------------------|
a--10-12--------------------------------------------------------|
E---------------------------------------------------------------|

e----------------------------15---------------------------------|
b--13---13---15--13-------15----17---13--17--17p15--13--13------|
g----12---12----------12----------------------------------------|
d---------------------------------------------------------------|
a---------------------------------------------------------------|
E---------------------------------------------------------------|

e------------------------------------------------|
b---------13---/15--15--13---\1------------------|
g-----12-----------------------------------------|
d-12---------------------------------------------|
a------------------------------------------------|
E------------------------------------------------|

verse C-G-Am-F   chorus C-G-Am-F

second solo with wah wah, and some of it might not be quite right, but it sounds kinda cool as it is.

e--------------------------------------------------------------|
b--------------------------------------------------------------|
g--12^^^9^^^9------------------------------------9-12-12-------|
d---------------h11--9--11-----7-10-------10-12----------------|
a---------------------------10------10-12----------------------|
E--------------------------------------------------------------|
[ Tab from: http://www.guitartabs.cc/tabs/p/phish/farmhouse_tab_ver_5.html ]
e-----------------------------------------------|
b--/13-13-13------/15-15------13\10\8\1---------|
g-----------------------------------------------|
d-----------------------------------------------|
a-----------------------------------------------|
E-----------------------------------------------|

verse C-G-Am-F   chorus C-G-Am-F

e--------------------------------------------------------------|
b--------------------------------------------------------------|
g---9---/14--14--12----------7--7h9p7-/9----9h10p9--\7--9--7---|
d--------------------12--10------------------------------------|
a--------------------------------------------------------------|
E--------------------------------------------------------------|

e----------------------------------------------------------------|
b----------------------------17--15--15--17b18---17--17--17p--15-|
g-----------------12b14--12--------------------------------------|
d--5--5h7p5--7---------------------------------------------------|
a----------------------------------------------------------------|
E----------------------------------------------------------------|

e----------------------------------------------------------------|
b---------------------------------------------------17b--18---20-|
g--17p-14h17-17b---17--17--17--14--12----------------------------|
d--------------------------------------14--12--10----------------|
a----------------------------------------------------------------|
E----------------------------------------------------------------|

e--/17--15--/20--20--17--15---------------------------------------|
b----------------------------15--13--13--13h15--17--17-17--17--15-|
g-----------------------------------------------------------------|
d-----------------------------------------------------------------|
a-----------------------------------------------------------------|
E-----------------------------------------------------------------|

e------------------15--15--15^^---17-----------------------------|
b--17----17--17h18--------------------17---17--15---17-18-17-----|
g-----17---------------------------------------------------------|
d----------------------------------------------------------------|
a----------------------------------------------------------------|
E----------------------------------------------------------------|

e--------------------------------------------------------------------|
b---------------------------17^^^^17b---17--17---15------------------|
b----------------------17----------------------------17------17^^^17-|b
d--15--14---14--14--17----------------------------------17-----------|
a--------------------------------------------------------------------|
E--------------------------------------------------------------------|

sry if i made some mistakes, which i bet i did, but it's my first tab so give me some slack
Comments