Phish - Farmhouse Chords & Tabs

 

Farmhouse Chords & Tabs

Phish Chords & Tabs

Version: 3 Type: Tab 0 ratings
1 star 2 stars 3 stars 4 stars 5 stars
comments

Farmhouse Tab

   
Farmhouse (solos)
By PHISH
Album: Farmhouse
Transcribed by Marjan Agicic (mgugic1@aol.com)

NOTE: I've been trying to find this solo on
      tab for a while but I couldn't find it
      so I just decided to do it. Since 
      the previous entry is from a live show
      and has no solo tabs, i decided to 
      post mine. This version is from the
      cd "Famrhouse". PHISH ROCKS!
      PPPEEEUUUUUUUUUU.....

Song progression is: C G Am F (KEY OF C)

KEY:
    >=Slide Up
    <=Slide Down
    ^=Bend Up   
[ Tab from: http://www.guitartabs.cc/tabs/p/phish/farmhouse_tab_ver_3.html ]
===FIRST SOLO (after first chorus)============================
                     ^
E-|-----------------------------------------------------------
B-|----------------8>10-8-------------------------------------
G-|-9-9>10<9--------------12----------------------------------
D-|----------12<10----------12-10----10------10-10-11>12-12-10
A-|-------------------------------12----10-12-----------------
E-|-----------------------------------------------------------
            ^                           ^
E-|---------------------12>13<12-----------------15-----------
B-|------------15>16<15---------13--13--15-13--15--17-15-13---
G-|-9-12-12-12--------------------12--12-----12---------------
D-|-----------------------------------------------------------
A-|-----------------------------------------------------------
E-|-----------------------------------------------------------

E-|------------------------------------------
B-|-17-17-13<10-10----13-13-13>15-15-13-10<1-
G-|-----------------12-----------------------
D-|---------------12-------------------------
A-|------------------------------------------
E-|------------------------------------------

===SECOND SOLO (after second chorus)============================

E-|------------------------------------------------
B-|------------------------------------------------
G-|-9-9-9-----------------------9-9--------9-12-12-
D-|-------10<7>10-7--7-10-12-10----10<7>10---------
A-|----------------10------------------------------
E-|------------------------------------------------

E-|--------------------------
B-|-13-13-13>15-13-10>13-8<1-
G-|--------------------------
D-|--------------------------
A-|--------------------------
E-|--------------------------
Comments