Phish - Farmhouse Chords & Tabs

 

Farmhouse Chords & Tabs

Phish Chords & Tabs

Version: 2 Type: Tab 0 ratings
1 star 2 stars 3 stars 4 stars 5 stars
comments

Farmhouse Tab

   
#----------------------------------PLEASE NOTE---------------------------------#
#This file is the author's own work and represents their interpretation of the #
#song. You may only use this file for private study, scholarship, or research. #
#------------------------------------------------------------------------------#


this tablature file originally archived at emil's phish tab page, http://www.redmedia.com/chords
Farmhouse  by:  Phish 
from Mike Andreoli
The chords were originally transcribed by Dave Ginsberg (davidgi@the-ark.com) 
with help from Matt Hoover (s449631@gettysburg.edu) 

Intro: 

 E |--------8------| 
 B |------8--------| 
 G |---/9----------| 
 D |---------------| 
 A |---------------| 
 E |---------------| 


Verse: C  G   Am   F   C 

Chorus: C G Am F




Solo: 

 E |--------------------------------------------------------------------| 
 B |----------5h6p5-----5-------8b10r---8-------------------------------| 
 G |---7b-~----------5--------------------7----5---5------------5-5-----| 
 D |-----------------------5---------------------7------5--5/7----------| 
 A |--------------------------------------------------------------------| 
 E |--------------------------------------------------------------------| 

 E |-----------------------------------------10b12r---10h12p10--8-------| 
 B |--------------------------8--8-------8------------------------------| 
 G |---5-----7b9r--5-----7/9---------9----------------------------------| 
 D |------7-----------7-------------------------------------------------| 
 A |--------------------------------------------------------------------| 
 E |--------------------------------------------------------------------| 

 E |-----8-------------------------15-----------------------------------| 
 B |---8---8--13b15--13-----15b17------(17)--(17r)--13---15b17--(17r)---| 
 G |--------------------12----------------------------------------------| 
 D |--------------------------------------------------------------------| 
 A |--------------------------------------------------------------------| 
 E |--------------------------------------------------------------------| 

 E |--------------------------------------------------------------------| 
 B |--p13----------13-----------13-13-13-10--13--10--15--15\13--10------| 
 G |-------14--12---------12/14-------------------------------------12--| 
 D |-------------------14-----------------------------------------------| 
 A |--------------------------------------------------------------------| 
 E |--------------------------------------------------------------------| 


Verse 2: Am G C F Am G C G
==========================


Interlude: 

    /Heavy Wah\ 
 E |--------------------------------------------------------------------| 
 B |---13---------------------------------------------------------------| 
 G |---12---12---12p10---------10--------------10------12b14r-p10-------| 
 D |--------10---10-----12p10--10--10---10/12------12--------------12---| 
 A |--------------------------------------------------------------------| 
 E |--------------------------------------------------------------------| 
[ Tab from: http://www.guitartabs.cc/tabs/p/phish/farmhouse_tab_ver_2.html ]
 E |--------------------------------------------------------------------| 
 B |-------------------------------------------------10--13-13--10------| 
 G |---12---12--12--12p10---------/7--7/9--12-12--9---------------------| 
 D |---10---10--10--------12p10-----------------------------------------| 
 A |---10---10--10------------------------------------------------------| 
 E |--------------------------------------------------------------------| 

 E |------------------------------------| 
 B |---13b15r--10------10--13-----------| 
 G |--------------12-----------12-------| 
 D |-------------------------------10---| 
 A |------------------------------------| 
 E |------------------------------------| 

 
Outro Solo: 

 E |--------------------------------------------------------------------| 
 B |----------------------10p8-8p5--~5----------------------------------| 
 G |----------12b-r--12b-----------------5-----7b9r/9--9h10--9h10p7-----| 
 D |----12b---------------------------------7---------------------------| 
 A |--------------------------------------------------------------------| 
 E |--------------------------------------------------------------------| 

 E |--------------------------------------------------------------------| 
 B |---------------------/17--15--17--17-----17b18--(18)r-14----17------| 
 G |---7-9------/14-\12--------------------------------------16----17---| 
 D |--------------------------------------14----------------------------| 
 A |--------10----------------------------------------------------------| 
 E |--------------------------------------------------------------------| 

 E |--------------------------------------------------------------------| 
 B |--------------------------------------------15b17~--17--18--20------| 
 G |---/14--17--17-14----17p14------14----------------------------------| 
 D |----------------------------17------14------------------------------| 
 A |----------------------------------------15--------------------------| 
 E |--------------------------------------------------------------------| 

 E |-------------20---17------------------------------------------------| 
 B |--17-20b22r-----------20--------------------------------------------| 
 G |--------------------------19---17----17--19/21---21-21-21\19-17-----| 
 D |----------------------------------19----------------------------17--| 
 A |--------------------------------------------------------------------| 
 E |--------------------------------------------------------------------| 

 E |-------------20--17-------------------------------------------------| 
 B |---20b22r------------20--17----------------17----------17-----------| 
 G |-----------------------------19--17h19b21-----19b-19b-----19b-19b---| 
 D |--------------------------------------------------------------------| 
 A |--------------------------------------------------------------------| 
 E |--------------------------------------------------------------------| 

 E |--------------------------------------------------| 
 B |-----------------------------17-18--20~--20b22r---| 
 G |---19--17---19p17------19b------------------------| 
 D |------------------h17-----------------------------| 
 A |--------------------------------------------------| 
 E |--------------------------------------------------| 
 
 

                 
Comments