Phish - Down With Disease Chords & Tabs

 

Down With Disease Chords & Tabs

Phish Chords & Tabs

Version: 1 Type: Bass Tab 1 rating
1 star 2 stars 3 stars 4 stars 5 stars
comments

Down With Disease Bass Tab

   
Down with Disease	transcribed by Andy Lemmon		by Phish
				       lemmon@epix.net
INTRO
  1  a 2  3 e  a 4     1 + 2 + 3 + 4 +  	
G--------------------|-----------------|
D--------------------|-----------------|	6x
A--------------3-5---|-----------------|
D-0--0----5-7--------|-0--0----3-3-5-5-|

VERSE 1
  1 + 2 + 3 + 4 +   1 + 2 + 3 + 4 +  
G-----------------|-----------------|
D-----------------|-----------------|	2x
A-0-0-0-0-0-0-0-0-|-0-0-0-0-0-0-0-0-|
D-----------------|-----------------|

  1  a 2  3 e  a 4     1 + 2 + 3 + 4 +  	
G--------------------|-----------------|
D--------------------|-----------------|	2x
A--------------3-5---|-----------------|
D-0--0----5-7--------|-0--0----3-3-5-5-|

VERSE 2
  1 + 2 + 3 + 4 +   1 + 2 + 3 + 4 +  
G-----------------|-----------------|
D-----------------|-----------------|	2x
A-0-0-0-0-0-0-0-0-|-0-0-0-0-0-0-0-0-|
D-----------------|-----------------|

  1  a 2  3 e  a 4     1 + 2 + 3 + 4 +  	
G--------------------|-----------------|
D--------------------|-----------------|	1x
A--------------3-5---|-----------------|
D-0--0----5-7--------|-0--0----3-3-5-5-|

  1  a 2  3 e  a 4     1 + 2 + 3 + 4 +  	
G--------------------|-----------------|
D--------------------|-----------------|	1x
A--------------3-5---|-5--4--3-----2---|
D-0--0----5-7--------|-----------------|

CHORUS
  1 + 2 + 3 + 4 +   1 + 2 + 3 + 4 +   1 + 2 + 3 + 4 +   1 + 2 + 3 + 4 +
G-----------------|-----------------|-----------------|----------------|
D-----------------|-----------------|-----------------|-------------5-7|
A-0---0-------0---|-----2-3-5-------|-----2-3-5-------|-----2-3-3-7----|
D---------2-4---4-|-5-5-------0-2-3-|-5-5-------0-2-3-|-5-5------------|

  1 + 2 + 3 + 4 +   1 + 2 + 3 + 4 +   1 + 2 + 3 + 4 +   1 + 2 + 3 + 4 +
G-----------------|-----------------|-----------------|----------------|
D-----------------|-----------------|-----------------|-------------5-7|
A-0---0-------0---|-----2-3-5-------|-----2-3-5-------|-----2-3-3-7----|
D---------2-4---4-|-5-5-------0-2-3-|-5-5-------0-2-3-|-5-5------------|

  1 + 2 + 3 + 4 +   1 + 2 + 3 + 4 +   1 + 2 + 3 + 4 +   1 + 2 + 3 + 4 +
G-----------------|-----------------|-----------------|----------------|
D-----------------|-------------5-7-|-----------------|----------------|
A-0---0-------0---|-----2-3-5-7-----|-0---0-------0---|-----2-3-5------|
D---------2-4---4-|-5-5-------------|---------2-4---4-|-5-5------------|

(Rest for 2 measures)

  1  a 2  3 e  a 4     1 + 2 + 3 + 4 +  	
G--------------------|-----------------|
D--------------------|-----------------|	1x
A--------------3-5---|-----------------|
D-0--0----5-7--------|-0--0----3-3-5-5-|

VERSE 3
  1 + 2 + 3 + 4 +   1 + 2 + 3 + 4 +  
G-----------------|-----------------|
D-----------------|-----------------|	2x
A-0-0-0-0-0-0-0-0-|-0-0-0-0-0-0-0-0-|
D-----------------|-----------------|

  1  a 2  3 e  a 4     1 + 2 + 3 + 4 +  	
G--------------------|-----------------|
D--------------------|-----------------|	2x
A--------------3-5---|-----------------|
D-0--0----5-7--------|-0--0----3-3-5-5-|

VERSE 4
  1 + 2 + 3 + 4 +   1 + 2 + 3 + 4 +  
G-----------------|-----------------|
D-----------------|-----------------|	2x
A-0-0-0-0-0-0-0-0-|-0-0-0-0-0-0-0-0-|
D-----------------|-----------------|

  1  a 2  3 e  a 4     1 + 2 + 3 + 4 +  	
G--------------------|-----------------|
D--------------------|-----------------|	1x
A--------------3-5---|-----------------|
D-0--0----5-7--------|-0--0----3-3-5-5-|

  1  a 2  3 e  a 4     1 + 2 + 3 + 4 +  	
G--------------------|-----------------|
D--------------------|-----------------|	1x
A--------------3-5---|-5--4--3-----2---|
D-0--0----5-7--------|-----------------|
[ Tab from: http://www.guitartabs.cc/tabs/p/phish/down_with_disease_btab.html ]
CHORUS
  1 + 2 + 3 + 4 +   1 + 2 + 3 + 4 +   1 + 2 + 3 + 4 +   1 + 2 + 3 + 4 +
G-----------------|-----------------|-----------------|----------------|
D-----------------|-----------------|-----------------|-------------5-7|
A-0---0-------0---|-----2-3-5-------|-----2-3-5-------|-----2-3-3-7----|
D---------2-4---4-|-5-5-------0-2-3-|-5-5-------0-2-3-|-5-5------------|

  1 + 2 + 3 + 4 +   1 + 2 + 3 + 4 +   1 + 2 + 3 + 4 +   1 + 2 + 3 + 4 +
G-----------------|-----------------|-----------------|----------------|
D-----------------|-----------------|-----------------|-------------5-7|
A-0---0-------0---|-----2-3-5-------|-----2-3-5-------|-----2-3-3-7----|
D---------2-4---4-|-5-5-------0-2-3-|-5-5-------0-2-3-|-5-5------------|

  1 + 2 + 3 + 4 +   1 + 2 + 3 + 4 +   1 + 2 + 3 + 4 +   1 + 2 + 3 + 4 +
G-----------------|-----------------|-----------------|----------------|
D-----------------|-------------5-7-|-----------------|----------------|
A-0---0-------0---|-----2-3-5-7-----|-0---0-------0---|-----2-3-5------|
D---------2-4---4-|-5-5-------------|---------2-4---4-|-5-5------------|


GUITAR SOLO
  1 + 2 + 3 + 4 +   1 + 2 + 3 + 4 +   1 + 2 + 3 + 4 +   1 + 2 + 3 + 4 +
G-----------------|-----------------|-----------------|----------------|
D-----5-------7---|-----5-------7---|-----5-------7---|-2--2--2--2--2--|
A-3-3---3-5-5---5-|-3-3---3-5-5---5-|-3-3---3-5-5---5-|----------------|
D-----------------|-----------------|-----------------|--2--2--2--2---2|

  1 + 2 + 3 + 4 +   1 + 2 + 3 + 4 +   1 + 2 + 3 + 4 +   1 +a  2 3 e a 4
G-----------------|-----------------|-----------------|----------------|
D-----5-------7---|-----5-------7---|-----5-------7---|-------------0-2|
A-3-3---3-5-5---5-|-3-3---3-5-5---5-|-3-3---3-5-5---5-|---------0-2----|
D-----------------|-----------------|-----------------|-2--2-----------|

  1 +a  2 3 e a 4   1 +a  2 3 e a 4   1 + 2 + 3 + 4 +  
G-----------------|-----------------|-----------------|
D-----------------|-------------0-2-|--2\\\\\\\\\\\---|
A-------------0-0-|---------0-2-----|-----------------|
D-2--2----5-5-----|-2--2------------|-2---------------|

CHORUS
  1 + 2 + 3 + 4 +   1 + 2 + 3 + 4 +   1 + 2 + 3 + 4 +   1 + 2 + 3 + 4 +
G-----------------|-----------------|-----------------|----------------|
D-----------------|-----------------|-----------------|-------------5-7|
A-0---0-------0---|-----2-3-5-------|-----2-3-5-------|-----2-3-3-7----|
D---------2-4---4-|-5-5-------0-2-3-|-5-5-------0-2-3-|-5-5------------|

  1 + 2 + 3 + 4 +   1 + 2 + 3 + 4 +   1 + 2 + 3 + 4 +   1 + 2 + 3 + 4 +
G-----------------|-----------------|-----------------|----------------|
D-----------------|-----------------|-----------------|-------------5-7|
A-0---0-------0---|-----2-3-5-------|-----2-3-5-------|-----2-3-3-7----|
D---------2-4---4-|-5-5-------0-2-3-|-5-5-------0-2-3-|-5-5------------|

  1 + 2 + 3 + 4 +   1 + 2 + 3 + 4 +   1 + 2 + 3 + 4 +   1 + 2 + 3 + 4 +
G-----------------|-----------------|-----------------|----------------|
D-----------------|-------------5-7-|-----------------|----------------|
A-0---0-------0---|-----2-3-5-7-----|-0---0-------0---|-----2-3-5------|
D---------2-4---4-|-5-5-------------|---------2-4---4-|-5-5------------|

OUTRO
  1 + 2 + 3 + 4 +   1 + 2 + 3 + 4 +   1 + 2 + 3 + 4 +   1 + 2 + 3 + 4 +
G-----------------|-----------------|-----------------|----------------|
D-----------------|-----------------|-----------------|-------------5-7|
A-0---0-------0---|-----2-3-5-------|-----2-3-5-------|-----2-3-3-7----|
D---------2-4---4-|-5-5-------0-2-3-|-5-5-------0-2-3-|-5-5------------|

  1 + 2 + 3 + 4 +   1 + 2 + 3 + 4 +   1 + 2 + 3 + 4 +   1 + 2 + 3 + 4 +
G-----------------|-----------------|-----------------|----------------|
D-----------------|-----------------|-----------------|-------------5-7|
A-0---0-------0---|-----2-3-5-------|-----2-3-5-------|-----2-3-3-7----|
D---------2-4---4-|-5-5-------0-2-3-|-5-5-------0-2-3-|-5-5------------|
								Repeat 'til End

Comments