Phish - Dirt Chords & Tabs

 

Dirt Chords & Tabs

Phish Chords & Tabs

Version: 3 Type: Tab 0 ratings
1 star 2 stars 3 stars 4 stars 5 stars
comments

Dirt Tab

   
DIRT  by Phish

Tabbed by: matt_barnes_2003@hotmail.com

regular tuning

Intro

--2-----2--2-----0------0-0------0--0-0------x--x-x---|
--3-----3--3-----1------1-1------1--1-1------3--3-3---|
--2-----2--2-----2------2-2------0--0-0------0--0-0---|   x2
--0-----0--0-----2------2-2----2-2--2-2------0--0-0---|
-----------------0---0--0-0--3---3--3-3------2--2-2---|
------------------------------------------3--3--3-3---|


D  		Am				C		G
I wanna live beneath the dirt...

and so on for the verse until the solo:
[ Tab from: http://www.guitartabs.cc/tabs/p/phish/dirt_tab_ver_3.html ]
-----------------------------------------------------------------------|
-----------------------------------------------------------------------|
-------14-----14--12--11------12--14---------14-12-11----14--11/12-11--|
---12------12-------------12--------------12----------12---------------|
-----------------------------------------------------------------------|
-----------------------------------------------------------------------|


-----------------------------------------------------------|
-----------------------------------------------------------|
------------12-11--------12--11----------------------------|
-12----12---------12-12----------12------------------------|  x2
----14------------------------------12/14-12---------------|
-----------------------------------------------------------|


This same pattern is then played higher and lower but its pretty much the same.
Comments