Phish - Demand Chords & Tabs

 

Demand Chords & Tabs

Phish Chords & Tabs

Version: 1 Type: Tab

Demand Tab

   
-------------------------------------------------------------------------------
			     Demand - Phish
-------------------------------------------------------------------------------

Tabbed By : Pauly S

E-9-----9-10------10-9-12----------------------------------|
B---10---------12---------10-9-----12-9------10------------|
G--------------------------------11------9--9----11--------|
D----------------------------------------------------12----|
A----------------------------------------------------------|
E----------------------------------------------------------|
[ Tab from: http://www.guitartabs.cc/tabs/p/phish/demand_tab.html ]
E----------------------------------------------------------|
B----------------------------------------------------------|
G-9-10--9-10--9------9-7-------5---5-4---------------7-----|
D----------------10-9-----7-------------5-----5-7-7/9------|
A----------------------------------------------------------|
E----------------------------------------------------------|

E----------------------------------------------------------|
B----------------------------------8-----------------------|
G-------7--------7--------7-9-7----------------------------|
D-5-7/9------7/9------7/9-------9--------------------------|
A----------------------------------------------------------|
E----------------------------------------------------------|

| /  slide up
| \  slide down
| h  hammer-on
| p  pull-off
| ~  vibrato
| +  harmonic
| x  Mute note
===============================================================================