Phish - Character Zero Riff Chords & Tabs

 

Character Zero Riff Chords & Tabs

Phish Chords & Tabs

Version: 1 Type: Tab 0 ratings
1 star 2 stars 3 stars 4 stars 5 stars
comments

Character Zero Riff Tab

#----------------------------------PLEASE NOTE---------------------------------#
#This file is the author's own work and represents their interpretation of the #
#song. You may only use this file for private study, scholarship, or research. #
#------------------------------------------------------------------------------#
#

Title: Character Zero
Artist: Phish
Tabbed by: Ryan Camer

Email: chcamer@aol.com



This was mostly right, except for a couple notes.
I substituted a 5h2 and it sounds about right.

Try it and see if it sounds a little better.



Riff 1
E |------------------------------------------------|
B |------------------------------3-(let ring)------|
G |------------------------------------------------|
D |-------2p0-5-2-0-2----5h2-----------------------|
A |------------------------------------------------|
E |--3p0-------------------------------------------|

[ Tab from: http://www.guitartabs.cc/tabs/p/phish/character_zero_riff_tab.html ]
Riff 2
E |------------------------------------------------|
B |------------------------------2-(let ring)------|
G |------------------------------------------------|
D |-------2p0-5-2-0-2----5h2-----------------------|
A |------------------------------------------------|
E |--3p0-------------------------------------------|


***************************************************************************************************************

**************************************************************************************************************




Character Zero
By Phish
Album:  Billy Breathes

Here's my version...Try it and see if it sounds a little better.  Transcribed by Eli (Spiny3@AOL.com)

Riff 1
E -----------------------------------------------
B -----------------------------3 (let ring)------
G -----------------------0-----------------------
D ------2p0-5-2-0-2----2-------------------------
A -----------------------------------------------
E -3p0-------------------------------------------

Riff 2
E -----------------------------------------------
B -----------------------------2 (let ring)------
G -----------------------0-----------------------
D ------2p0-5-2-0-2----2-------------------------
A -----------------------------------------------
E -3p0-------------------------------------------

Comments