Phish - Buried Alive Chords & Tabs

 

Buried Alive Chords & Tabs

Phish Chords & Tabs

Version: 1 Type: Bass Tab 0 ratings
1 star 2 stars 3 stars 4 stars 5 stars
comments

Buried Alive Bass Tab

   
From: MGordon43@aol.com
Date: Wed, 10 Jan 1996 12:25:58 -0500
Subject: basstab for buried alive by phish


Basstab for BURIED ALIVE
By: PHiSH
Transcribed by: Matt Leto (MGORDON43@aol.com)


start by just sliding up on the E string then go into it

the whole thing is in C#

Part A

E|-------------------------------------------------------------------|
A|----4----------4--4------------------repeat 4X--------------|
D|------------------------5--6-------------------------------------|
G|--------6--6-----------------------------------------------------|


Part B
[ Tab from: http://www.guitartabs.cc/tabs/p/phish/buried_alive_btab.html ]
E|-----------------------------------------------------------------|
A|---9--------------9---9--------------------repeat 2x-------|
D|----------------------------10---11----------------------------|
G|---------11--11------------------------------------------------|

repeat part A 2x

Part C

E|--------------------------------------------------------------------------------------------------------|
A|---11-------------11--------11-------11--------------9--------------9---------9-------9--------|
D|--------------------------13--------12------11-------------------------------11-----10-----11--|
G|---------13--13----------------------------------------------11--11-------------------------------|

repeat part A once and then the second time end on the  C# of the G string

THen repeat the whole thing while guitar solos over it

Comments