Phish - Bug Chords & Tabs

 

Bug Chords & Tabs

Phish Chords & Tabs

Version: 2 Type: Tab 0 ratings
1 star 2 stars 3 stars 4 stars 5 stars
comments

Bug Tab

   
Artist:  Phish
Song:  "Bug"
Album:  "Farmhouse"
from:  jdkennedy77@aol.com


Chords (bar chords sound better for chorus):
     G   F   C
E----3---1---0---
B----0---1---1---
G----0---2---0---
D----0---3---2---
A----2---1---3---
E----3---1---X---


Used throughout (can be played under bar chord or picked cleanly):
[ Tab from: http://www.guitartabs.cc/tabs/p/phish/bug_tab_ver_2.html ]
      G                    F
       p   p     p   p      p   p     p   p
E-----5-3-5-3---5-3-5-3----3-1-3-1---3-1-3-1----------------
B-------------3---------3----------1---------1--------------
G-----------------------------------------------------------
D-----------------------------------------------------------
A-----------------------------------------------------------
E-----------------------------------------------------------


INTRO:  

G  F | C  G |  x 2


VERSE 1 (0:26):
G              F                C     G
There've been times...

BRIDGE (1:15):  
G  F | C  G | x 2

CHORUS (1:40):
F     C      G  
(BUG) It doesn't matter x 4

VERSE 2 (2:04)

G   F                           C       G
    Gold in my hand...

BRIDGE (2:53):  
G  F | C  G | x 2

CHORUS (3:18):
F     C      G  
(BUG) It doesn't matter x 4

LEAD (3:46) RHYTHM UNDER LEAD:
G F G
Comments