Phish - Bathtub Gin Chords & Tabs

 

Bathtub Gin Chords & Tabs

Phish Chords & Tabs

Version: 2 Type: Tab 0 ratings
1 star 2 stars 3 stars 4 stars 5 stars
comments

Bathtub Gin Tab

e--7/8--------------------------------------------------------|
B-------7/8-10-11-10-11-10------------------------------------|  x2
G--------------------------8/9-10-12-10~-9-8-9-10-8-8/9-------|
D-------------------------------------------------------10-8--|
A-------------------------------------------------------------|
E-------------------------------------------------------------|
[ Tab from: http://www.guitartabs.cc/tabs/p/phish/bathtub_gin_tab_ver_2.html ]
e-------------------------------------------------------------|
B----------10-13-11-10-11----10h11h13-13/15-13----------------|
G--8h10-10----------------10----------------------------------|
D----------------------------------------------13 13h15-------|
A-------------------------------------------------------------|
E-------------------------------------------------------------|
The chords in the intro are:
e--------------------------------------------|
B--------------------------------------------|
G----9-------7-------------------------------|
D----10------8-------------------------------|
A----10------8-------------------------------|
E-8--8----6--6-------------------------------|
Comments