Phish - Bathtub Gin Chords & Tabs

 

Bathtub Gin Chords & Tabs

Phish Chords & Tabs

Version: 1 Type: Tab 0 ratings
1 star 2 stars 3 stars 4 stars 5 stars
comments

Bathtub Gin Tab

-----------------------------------------------------------------------------
			     Phish - Bathtub Gin
-----------------------------------------------------------------------------
Tabbed by: Gregstrong
Email: Gregstrong711@hotmail.com

Tuning:Normal

[ Tab from: http://www.guitartabs.cc/tabs/p/phish/bathtub_gin_tab.html ]
Repeat Once
e|--------------------------------------------------------------------------|
B|13------------------------------------------------------------------------|
G|-----8-10-11-10-11-10-----------------------------------------------------|
D|----------------------9-10-12-10-9-8-9-10-8-9-----------------------------|
A|----------------------------------------------10-8------------------------|
E|--------------------------------------------------------------------------|

2nd Riff
e|--------------------------------------------------------------------------|
B|-------------10-13-11-9-10------10-11-13--15-13--13-----------------------|
G|-8--8-10--10----------------10----------------------8---------------------|
D|--------------------------------------------------------------------------|
A|--------------------------------------------------------------------------|
E|--------------------------------------------------------------------------|
Comments