Phish - Axilla Chords & Tabs

 

Axilla Chords & Tabs

Phish Chords & Tabs

Version: 2 Type: Tab 0 ratings
1 star 2 stars 3 stars 4 stars 5 stars
comments

Axilla Tab

Title: Axilla Part II
Artist: Phish
Album: Hoist

this is a really fun song to play, just a little tricky.

Intro:

---4h6-6--4h6-6----------------|
---4h6-6--4h6-6----------------|
-----------------6-6--8-8------|
-----------------6-6--8-8------|
-----------------4-4--6-6------|
-------------------------------|

Verse:
This part is tricky, so listen for the accents
[ Tab from: http://www.guitartabs.cc/tabs/p/phish/axilla_tab_ver_2.html ]
----------------------------------------------------------------------------|
----------------------------------------------------------------------------|
----------^6^-------------------------^6^-----------------------------------|
------8-------8----6-8------------8-------8-----^6^-------------------------|
----8-----------8------6-8------8-----------6h8-----------------------------|
--6-----6------------------9--6-----6---------------------------------------|


Chorus
this is just dead frets

--x------------------------------------------------------------------------|
--x------------------------------------------------------------------------|
---------------------------------------------------------------------------|
---------------------------------------------------------------------------|
---------------------------------------------------------------------------|
---------------------------------------------------------------------------|

any comments/corrections?
 send to ZioPhishDMB@aol.com
Comments