Phish - Axilla Chords & Tabs

 

Axilla Chords & Tabs

Phish Chords & Tabs

Version: 1 Type: Bass Tab

Axilla Bass Tab

   
-------------------------------------------------------------------------------
			     Axilla II - Phish
-------------------------------------------------------------------------------

Tabbed By : Pauly S

Main riff:
G|--------------------------------------------------------|
D|--------------------------------------------------------|
A|--------------4--4--6--------------------4--4--6--------|
E|--6--6--6--6-----------2--3--6--6--6--6-----------2--3--|

(Summer, sitting out...)
G|----------6----------------------------6-------------|
D|------8-----8---6-8-----6----------8-----8---6-8-----|
A|----8---8-----8-----6-8----------8---8-----8---------|
E|--6-----------------------9----6-----------------9\--|
[ Tab from: http://www.guitartabs.cc/tabs/p/phish/axilla_btab.html ]
(Close your eyes, and...)
G|----------3----------------------------3-------------|
D|------5-----5---3-5-----3----------4-----4---2-4-----|
A|----5---5-----5-----3-5----------4---4-----4---------|
E|--3-----------------------6----2-----------------5\--|

(Axilla!  Axilla!...)
G|-----------------------------------------------------|
D|-----------------------------------------------------|
A|-----------------------------------------------------|
E|--1-1-1-1-1-1-1-1-1-1-1-1-1-1-1-1-1-1-1-1-1-1-1-1-1--|



(Never understood what my...)
G|--------------------------------------------------------------------|
D|--------------------------------------------------------------------|
A|--6-----------------6-----------------6-----------------6-----------|
E|-----6-6---4---6-6-----6-6---4---6-6-----6-6---4---6-6-----6-6---4--|

(From wall to wall...)
G|----------------------------------|
D|----------------------------------|
A|----------------------------------|
E|--1-1-1-1-1-1-1-1-1-(etc., etc.)--|


| /  slide up
| \  slide down
| h  hammer-on
| p  pull-off
| ~  vibrato
| +  harmonic
| x  Mute note
===============================================================================