Phineas And Ferb - Come Home Perry Chords & Tabs

 

Phineas And Ferb Chords & Tabs

Version: 1 Type: Tab 0 ratings
1 star 2 stars 3 stars 4 stars 5 stars
comments

Come Home Perry Tab

   
This is my first tab so sorry if i mess up..




Intro 
Strum this out
|--3--3---3---3---3---3--3--3----------------------------------------|
|--1--1---1---1---1---1--1--1----------------------------------------|
|--0--0---0---0---0---0--0--0----------------------------------------|
|--------------------------------------------------------------------|
|--3--2---0----------------------------------------------------------|
|-------------3---1---0--1--3----------------------------------------|

after 

|--3------|
|--1------|
|--0------|
|---------|
|---------|
|--3------| 

Comes

|-----3-----------------------|
|0-1--------------------------|
|-----------------------------|
|-----------------------------|
|-----------------------------|
|-----------------------------|
 
and then again 

|--3--3---3---3---3---3--3--3----------------------------------------|
|--1--1---1---1---1---1--1--1----------------------------------------|
|--0--0---0---0---0---0--0--0----------------------------------------|
|--------------------------------------------------------------------|
|--3--2---0----------------------------------------------------------|
|-------------3---1---0--1--3----------------------------------------| 

And then comes

|----12-----------------------|
|------13---------------------|
|---------12------------------|
|-----------------------------|
|-----------------------------|
|-----------------------------|

and then 

|--3--3---3---3---3---3--3--3----------------------------------------|
|--1--1---1---1---1---1--1--1----------------------------------------|
|--0--0---0---0---0---0--0--0----------------------------------------|
|--------------------------------------------------------------------| X2
|--3--2---0----------------------------------------------------------|
|-------------3---1---0--1--3----------------------------------------|

Then there comes something lika a pre-chorus
Thats only a G 

I play it like this cause it sound better ( I think ) 

|--3---|                                     |---3----|
|--3---|                                     |---0----|
|--4---|  But this sounds okay to (:         |---0----|
|--5---|                                     |---0----|
|--5---|                                     |---2----|
|--3---|                                     |---3----|

[ Tab from: http://www.guitartabs.cc/tabs/p/phineas_and_ferb/come_home_perry_tab.html ]
Then There comes the chorus
This are the chords
The C  begins immediately in the verse 


  F          G     And     C  
|-1--|     |-3--|        |-0--|
|-1--|     |-3--|        |-1--|
|-2--|     |-4--|        |-0--|
|-3--|     |-5--|        |-2--|
|-3--|     |-5--|        |-3--|
|-1--|     |-3--|        |-0--|

Then again 

Verse 2 

|--3--3---3---3---3---3--3--3----------------------------------------|
|--1--1---1---1---1---1--1--1----------------------------------------|
|--0--0---0---0---0---0--0--0----------------------------------------|
|--------------------------------------------------------------------| X2
|--3--2---0----------------------------------------------------------|
|-------------3---1---0--1--3----------------------------------------| 

Then there is a silence 

And then when everybody sais "She is gonna change her name in to Larry" 
it begins with the G again 

|--3---|          |---3----|
|--3---|          |---0----|
|--4---|  or      |---0----|
|--5---|          |---0----|
|--5---|          |---2----|
|--3---|          |---3----|

And then the chorus again with a few more chords 


 F          G         Am           Em   And again an   F
|-1--|     |-3--|    |-0--|      |-0--|               |-1--|
|-1--|     |-3--|    |-1--|      |-0--|               |-1--|
|-2--|     |-4--|    |-2--|      |-0--|               |-2--|
|-3--|     |-5--|    |-2--|      |-2--|               |-3--|
|-3--|     |-5--|    |-0--|      |-2--|               |-3--|
|-1--|     |-3--|    |-0--|      |-0--|               |-1--|



F          G     And     C  
|-1--|     |-3--|        |-0--|
|-1--|     |-3--|        |-1--|
|-2--|     |-4--|        |-0--|
|-3--|     |-5--|        |-2--|
|-3--|     |-5--|        |-3--|
|-1--|     |-3--|        |-0--|

And then the last time

|--3--3---3---3---3----------------3----------------------------------------|
|--1--1---1---1---1----------------1----------------------------------------|
|--0--0---0---0---0----------------0----------------------------------------|
|--------------------No-----------------------------------------------------|
|--3--2---0---------Strings-------------------------------------------------|
|-------------3---1----------------3----------------------------------------|


Thats it!

Enjoy
Comments