Philmore - Our Finest Hour Chords & Tabs

 

Our Finest Hour Chords & Tabs

Philmore Chords & Tabs

Version: 1 Type: Tab 0 ratings
1 star 2 stars 3 stars 4 stars 5 stars
comments

Our Finest Hour Tab

   
tabbed by: Jake Scott
Artist: Philmore
Song: Our Finest Hour
Album: Philmore

I think for the solos, the eather used some form of chorus of reverb.
Other than that it's a pretty simple song.  Please correct it if its wrong. :^)

intro:
(guitar 1)
e-------
b-6-5-1-
g-------
D-------
A-------
E-------

intro(verse too) 2:
(both guitars)
e---------------------------------------------------------------------------
b---------------------------------------------------------------------------
g-7-7-7-7-7-7-7-7-7-7-7-7-7-5-5-3-3-3-3-3-3-3-3-3-3-5-5-5-5-5-5-5-5-5-5-5-5-
D-7-7-7-7-7-7-7-7-7-7-7-7-7-5-3-3-3-3-3-3-3-3-3-3-3-5-5-5-5-5-5-5-5-5-5-5-5-
A-5-5-5-5-5-5-5-5-5-5-5-5-5-3-1-1-1-1-1-1-1-1-1-1-1-3-3-3-3-3-3-3-3-3-3-3-3-
E---------------------------------------------------------------------------

e-------------------------------------
b-------------------------------------
g-7-7-7-7-7-7-7-7-7-7-7-7-7-3-3-3/5-5-
D-7-7-7-7-7-7-7-7-7-7-7-7-7-3-3-3/5-5-
A-5-5-5-5-5-5-5-5-5-5-5-5-5-1-1-1/3-3-
E-------------------------------------

(guitar 1)
e-5-5-5~-5p3-3-3p1-1-1-1~-3/5-3~-5-5h6p5-
b----------------------------------------
g----------------------------------------
D----------------------------------------
A----------------------------------------
E----------------------------------------

verse

chorus:
e-----------------------------------------------------------------
b-----------------------------------------------------------------
g-7--7--3-3-3-3-3-3-3-3-3-3-3-3-3-5--5-5--------------------------
D-7--7--3-3-3-3-3-3-3-3-3-3-3-3-3-5--5-5--7-7-7-7-7-7-7-7-5-5-5-5-
A-5--5--1-1-1-1-1-1-1-1-1-1-1-1-1-3--3-3--7-7-7-7-7-7-7-7-5-5-5-5-
E-----------------------------------------5-5-5-5-5-5-5-5-3-3-3-3-

e-------------------------------------------
b-------------------------------------------
g-5-5-7--7--3-3-3-3-3-3-3-3-3-3-3-3-3-5--5~-
D-5-5-7--7--3-3-3-3-3-3-3-3-3-3-3-3-3-5--5~-
A-3-3-5--5--1-1-1-1-1-1-1-1-1-1-1-1-1-3--3~-
E-------------------------------------------

e-------------------------------------------
b-------------------------------------------
g-5-7-7-7-7-7-7-7-7-7-7-7-7-3-3---9-7-9-7-
D-5-7-7-7-7-7-7-7-7-7-7-7-7-3-3---9-7-9-7-
A-3-5-5-5-5-5-5-5-5-5-5-5-5-1-3-8-7-5-7-5-
E-------------------------------------------
[ Tab from: http://www.guitartabs.cc/tabs/p/philmore/our_finest_hour_tab.html ]
solo:
e*-5-3-5--5-3-5--5-3-5--5-3-5-*
b*------3------3------3------3*
g*----------------------------*
D*----------------------------*
A*----------------------------*
E*----------------------------*

e-5-3-5-5-3-3-1h3p1p0-5-5h6p5~~-
b-------------------------------
g-------------------------------
D-------------------------------
A-------------------------------
E-------------------------------

e-17-15-13-17-15-13-*17-17-15-17--17-15-17--17-15-17--17-15-17--*
b-------------------*-----------15--------15--------15--------15*
g-------------------*-------------------------------------------*
D-------------------*-------------------------------------------*
A-------------------*-------------------------------------------*
E-------------------*-------------------------------------------*

e-17-15-17-17-15-15-13h15p13-12-17-17h18p17~~
b------------------------------------------~~
g------------------------------------------~~
D------------------------------------------~~
A------------------------------------------~~
E------------------------------------------~~

verse

chorus

solo 2:

e------------------------------------------------------------------------
b-10-8-6-8b(10)-(10)r-6---10-10-10-10p8-8-8-8-8p6-6-6-6h8p6-10-10h11p10~~
g----------------------7~~---------------------------------9-------------
D------------------------------------------------------------------------
A------------------------------------------------------------------------
E------------------------------------------------------------------------

e-17-15-13-15b(17)-(17)r-13----17-17-17-17p15-15-15-15p13-13-13-13h15-p13-12
b--------------------------15v~---------------------------------------------
g---------------------------------------------------------------------------
D---------------------------------------------------------------------------
A---------------------------------------------------------------------------
E---------------------------------------------------------------------------

e-17-17h18p17~
b-------------
g-------------
D-------------
A-------------
E-------------        after solo 2, repeat solo 1, chorus then this:

ending:

e---------------------------------------------------
b---------------------------------------------------
g-----------------------------------------------5~~~
D-----------------------------------------------5~~~
A-1-3-8-7-5-7-5-7-8-10-8-10-12-13-12-7-5-7-5----3~~~
E---------------------------------------------------

tab notation:

/=slide
h=hammer-on
p=pull-off
*=repeat
~=let ring
v=vibrato
Comments