Philmore - Our Finest Hour Chords & Tabs

 

Our Finest Hour Chords & Tabs

Philmore Chords & Tabs

Version: 1 Type: Bass Tab 0 ratings
1 star 2 stars 3 stars 4 stars 5 stars
comments

Our Finest Hour Bass Tab

   
Song: Our Finest Hour
Artist: Philmore
Album: Philmore
Tabbed by: teddy (Gzuz012188@aol.com)

it's pretty easy. please e-mail me if you have any questions
or comments. B^) 

intro/verses
G|---------------------------------------
D|---------------------------------------
A|5555555-3-1111111-5-33333333-5555-11-33	X4
E|---------------------------------------

chorus
G|-----------------------------------------------
D|------------------3333-22----------------------
A|5-5-11111111-3-33---------33-5-5-11111111-3-3-5
E|-----------------------------------------------

ending 1.
G|---------------------------------------
D|---------------------------------------
A|1-3-8-7-3-7-5--------------------------
E|---------------------------------------
then repeat the whole thing over again
[ Tab from: http://www.guitartabs.cc/tabs/p/philmore/our_finest_hour_btab.html ]
after 2nd chorus
G|-----------------------------------
D|----------3------------------------
A|5-0-55-\1---1-1--1-3---33-5-111-333	x2
E|---------------------3-------------

G|---------------------------------------
D|---------------------------------------
A|5555555-3-1111111-5-33333333-5555-11-33	x2
E|---------------------------------------

repeat chorus

ending 2.
G|-----------------------------------------
D|-----------------------------------------
A|1-3-8-7-3-7-5-7-8-10-8-10-12-10-8-7-3-7-5
E|-----------------------------------------


G|---------------------------------------
D|---------------------------------------
A|/12\1---3------------------------------
E|---------------------------------------
note: make sure the slides are all in ONE(1) slide (up to 12
and down to 1).  =-)



Comments